  0
SECTION
  2
HEADER
  9
$ACADVER
  1
AC1021
  9
$ACADMAINTVER
 70
    50
  9
$DWGCODEPAGE
  3
ANSI_1252
  9
$INSBASE
 10
0.0
 20
0.0
 30
0.0
  9
$EXTMIN
 10
-5.500000119209288
 20
-0.1562501192092895
 30
30.17122889073865
  9
$EXTMAX
 10
5.500000119209288
 20
5.562500059604643
 30
45.67122841390149
  9
$LIMMIN
 10
0.0
 20
0.0
  9
$LIMMAX
 10
12.0
 20
9.0
  9
$ORTHOMODE
 70
     0
  9
$REGENMODE
 70
     1
  9
$FILLMODE
 70
     1
  9
$QTEXTMODE
 70
     0
  9
$MIRRTEXT
 70
     0
  9
$LTSCALE
 40
1.0
  9
$ATTMODE
 70
     1
  9
$TEXTSIZE
 40
0.2
  9
$TRACEWID
 40
0.05
  9
$TEXTSTYLE
  7
Standard
  9
$CLAYER
  8
0
  9
$CELTYPE
  6
ByLayer
  9
$CECOLOR
 62
   256
  9
$CELTSCALE
 40
1.0
  9
$DISPSILH
 70
     0
  9
$DIMSCALE
 40
1.0
  9
$DIMASZ
 40
0.18
  9
$DIMEXO
 40
0.0625
  9
$DIMDLI
 40
0.38
  9
$DIMRND
 40
0.0
  9
$DIMDLE
 40
0.0
  9
$DIMEXE
 40
0.18
  9
$DIMTP
 40
0.0
  9
$DIMTM
 40
0.0
  9
$DIMTXT
 40
0.18
  9
$DIMCEN
 40
0.09
  9
$DIMTSZ
 40
0.0
  9
$DIMTOL
 70
     0
  9
$DIMLIM
 70
     0
  9
$DIMTIH
 70
     1
  9
$DIMTOH
 70
     1
  9
$DIMSE1
 70
     0
  9
$DIMSE2
 70
     0
  9
$DIMTAD
 70
     0
  9
$DIMZIN
 70
     0
  9
$DIMBLK
  1

  9
$DIMASO
 70
     1
  9
$DIMSHO
 70
     1
  9
$DIMPOST
  1

  9
$DIMAPOST
  1

  9
$DIMALT
 70
     0
  9
$DIMALTD
 70
     2
  9
$DIMALTF
 40
25.4
  9
$DIMLFAC
 40
1.0
  9
$DIMTOFL
 70
     0
  9
$DIMTVP
 40
0.0
  9
$DIMTIX
 70
     0
  9
$DIMSOXD
 70
     0
  9
$DIMSAH
 70
     0
  9
$DIMBLK1
  1

  9
$DIMBLK2
  1

  9
$DIMSTYLE
  2
Standard
  9
$DIMCLRD
 70
     0
  9
$DIMCLRE
 70
     0
  9
$DIMCLRT
 70
     0
  9
$DIMTFAC
 40
1.0
  9
$DIMGAP
 40
0.09
  9
$DIMJUST
 70
     0
  9
$DIMSD1
 70
     0
  9
$DIMSD2
 70
     0
  9
$DIMTOLJ
 70
     1
  9
$DIMTZIN
 70
     0
  9
$DIMALTZ
 70
     0
  9
$DIMALTTZ
 70
     0
  9
$DIMUPT
 70
     0
  9
$DIMDEC
 70
     4
  9
$DIMTDEC
 70
     4
  9
$DIMALTU
 70
     4
  9
$DIMALTTD
 70
     2
  9
$DIMTXSTY
  7
Standard
  9
$DIMAUNIT
 70
     0
  9
$DIMADEC
 70
     0
  9
$DIMALTRND
 40
0.0
  9
$DIMAZIN
 70
     0
  9
$DIMDSEP
 70
    46
  9
$DIMATFIT
 70
     3
  9
$DIMFRAC
 70
     0
  9
$DIMLDRBLK
  1

  9
$DIMLUNIT
 70
     4
  9
$DIMLWD
 70
    -2
  9
$DIMLWE
 70
    -2
  9
$DIMTMOVE
 70
     0
  9
$DIMFXL
 40
1.0
  9
$DIMFXLON
 70
     0
  9
$DIMJOGANG
 40
0.7853981633974483
  9
$DIMTFILL
 70
     0
  9
$DIMTFILLCLR
 70
     0
  9
$DIMARCSYM
 70
     0
  9
$DIMLTYPE
  6

  9
$DIMLTEX1
  6

  9
$DIMLTEX2
  6

  9
$LUNITS
 70
     4
  9
$LUPREC
 70
     4
  9
$SKETCHINC
 40
0.1
  9
$FILLETRAD
 40
0.0
  9
$AUNITS
 70
     0
  9
$AUPREC
 70
     0
  9
$MENU
  1
.
  9
$ELEVATION
 40
0.0
  9
$PELEVATION
 40
0.0
  9
$THICKNESS
 40
0.0
  9
$LIMCHECK
 70
     0
  9
$CHAMFERA
 40
0.0
  9
$CHAMFERB
 40
0.0
  9
$CHAMFERC
 40
0.0
  9
$CHAMFERD
 40
0.0
  9
$SKPOLY
 70
     0
  9
$TDCREATE
 40
2455434.566701482
  9
$TDUCREATE
 40
2455434.733368148
  9
$TDUPDATE
 40
2455434.566701482
  9
$TDUUPDATE
 40
2455434.733368148
  9
$TDINDWG
 40
0.0000016319
  9
$TDUSRTIMER
 40
0.0000016319
  9
$USRTIMER
 70
     1
  9
$ANGBASE
 50
0.0
  9
$ANGDIR
 70
     0
  9
$PDMODE
 70
     0
  9
$PDSIZE
 40
0.0
  9
$PLINEWID
 40
0.0
  9
$SPLFRAME
 70
     0
  9
$SPLINETYPE
 70
     6
  9
$SPLINESEGS
 70
     8
  9
$HANDSEED
  5
7D2
  9
$SURFTAB1
 70
     6
  9
$SURFTAB2
 70
     6
  9
$SURFTYPE
 70
     6
  9
$SURFU
 70
     6
  9
$SURFV
 70
     6
  9
$UCSBASE
  2

  9
$UCSNAME
  2

  9
$UCSORG
 10
0.0
 20
0.0
 30
0.0
  9
$UCSXDIR
 10
1.0
 20
0.0
 30
0.0
  9
$UCSYDIR
 10
0.0
 20
1.0
 30
0.0
  9
$UCSORTHOREF
  2

  9
$UCSORTHOVIEW
 70
     0
  9
$UCSORGTOP
 10
0.0
 20
0.0
 30
0.0
  9
$UCSORGBOTTOM
 10
0.0
 20
0.0
 30
0.0
  9
$UCSORGLEFT
 10
0.0
 20
0.0
 30
0.0
  9
$UCSORGRIGHT
 10
0.0
 20
0.0
 30
0.0
  9
$UCSORGFRONT
 10
0.0
 20
0.0
 30
0.0
  9
$UCSORGBACK
 10
0.0
 20
0.0
 30
0.0
  9
$PUCSBASE
  2

  9
$PUCSNAME
  2

  9
$PUCSORG
 10
0.0
 20
0.0
 30
0.0
  9
$PUCSXDIR
 10
1.0
 20
0.0
 30
0.0
  9
$PUCSYDIR
 10
0.0
 20
1.0
 30
0.0
  9
$PUCSORTHOREF
  2

  9
$PUCSORTHOVIEW
 70
     0
  9
$PUCSORGTOP
 10
0.0
 20
0.0
 30
0.0
  9
$PUCSORGBOTTOM
 10
0.0
 20
0.0
 30
0.0
  9
$PUCSORGLEFT
 10
0.0
 20
0.0
 30
0.0
  9
$PUCSORGRIGHT
 10
0.0
 20
0.0
 30
0.0
  9
$PUCSORGFRONT
 10
0.0
 20
0.0
 30
0.0
  9
$PUCSORGBACK
 10
0.0
 20
0.0
 30
0.0
  9
$USERI1
 70
     0
  9
$USERI2
 70
     0
  9
$USERI3
 70
     0
  9
$USERI4
 70
     0
  9
$USERI5
 70
     0
  9
$USERR1
 40
0.0
  9
$USERR2
 40
0.0
  9
$USERR3
 40
0.0
  9
$USERR4
 40
0.0
  9
$USERR5
 40
0.0
  9
$WORLDVIEW
 70
     1
  9
$SHADEDGE
 70
     3
  9
$SHADEDIF
 70
    70
  9
$TILEMODE
 70
     1
  9
$MAXACTVP
 70
    64
  9
$PINSBASE
 10
0.0
 20
0.0
 30
0.0
  9
$PLIMCHECK
 70
     0
  9
$PEXTMIN
 10
1.000000000000000E+20
 20
1.000000000000000E+20
 30
1.000000000000000E+20
  9
$PEXTMAX
 10
-1.000000000000000E+20
 20
-1.000000000000000E+20
 30
-1.000000000000000E+20
  9
$PLIMMIN
 10
0.0
 20
0.0
  9
$PLIMMAX
 10
12.0
 20
9.0
  9
$UNITMODE
 70
     0
  9
$VISRETAIN
 70
     1
  9
$PLINEGEN
 70
     0
  9
$PSLTSCALE
 70
     1
  9
$TREEDEPTH
 70
  3020
  9
$CMLSTYLE
  2
Standard
  9
$CMLJUST
 70
     0
  9
$CMLSCALE
 40
1.0
  9
$PROXYGRAPHICS
 70
     1
  9
$MEASUREMENT
 70
     0
  9
$CELWEIGHT
370
    -1
  9
$ENDCAPS
280
     0
  9
$JOINSTYLE
280
     0
  9
$LWDISPLAY
290
     0
  9
$INSUNITS
 70
     1
  9
$HYPERLINKBASE
  1

  9
$STYLESHEET
  1

  9
$XEDIT
290
     1
  9
$CEPSNTYPE
380
     0
  9
$PSTYLEMODE
290
     1
  9
$FINGERPRINTGUID
  2
{533E74A5-EE6D-4041-BFDE-4983B97D55F1}
  9
$VERSIONGUID
  2
{FE221BCE-CB9B-478D-BB32-41D1E9108D0D}
  9
$EXTNAMES
290
     1
  9
$PSVPSCALE
 40
0.0
  9
$OLESTARTUP
290
     0
  9
$SORTENTS
280
   127
  9
$INDEXCTL
280
     0
  9
$HIDETEXT
280
     1
  9
$XCLIPFRAME
290
     0
  9
$HALOGAP
280
     0
  9
$OBSCOLOR
 70
   257
  9
$OBSLTYPE
280
     0
  9
$INTERSECTIONDISPLAY
280
     0
  9
$INTERSECTIONCOLOR
 70
   257
  9
$DIMASSOC
280
     2
  9
$PROJECTNAME
  1

  9
$CAMERADISPLAY
290
     0
  9
$LENSLENGTH
 40
50.0
  9
$CAMERAHEIGHT
 40
0.0
  9
$STEPSPERSEC
 40
2.0
  9
$STEPSIZE
 40
6.0
  9
$3DDWFPREC
 40
2.0
  9
$PSOLWIDTH
 40
0.25
  9
$PSOLHEIGHT
 40
4.0
  9
$LOFTANG1
 40
1.570796326794896
  9
$LOFTANG2
 40
1.570796326794896
  9
$LOFTMAG1
 40
0.0
  9
$LOFTMAG2
 40
0.0
  9
$LOFTPARAM
 70
     7
  9
$LOFTNORMALS
280
     1
  9
$LATITUDE
 40
37.795
  9
$LONGITUDE
 40
-122.394
  9
$NORTHDIRECTION
 40
0.0
  9
$TIMEZONE
 70
 -8000
  9
$LIGHTGLYPHDISPLAY
280
     1
  9
$TILEMODELIGHTSYNCH
280
     1
  9
$CMATERIAL
347
11
  9
$SOLIDHIST
280
     1
  9
$SHOWHIST
280
     1
  9
$DWFFRAME
280
     2
  9
$DGNFRAME
280
     0
  9
$REALWORLDSCALE
290
     1
  9
$INTERFERECOLOR
 62
     1
  9
$INTERFEREOBJVS
345
33
  9
$INTERFEREVPVS
346
30
  9
$CSHADOW
280
     0
  9
$SHADOWPLANELOCATION
 40
0.0
  0
ENDSEC
  0
SECTION
  2
CLASSES
  0
CLASS
  1
ACDBDICTIONARYWDFLT
  2
AcDbDictionaryWithDefault
  3
ObjectDBX Classes
 90
        0
 91
        1
280
     0
281
     0
  0
CLASS
  1
MATERIAL
  2
AcDbMaterial
  3
ObjectDBX Classes
 90
     1153
 91
        4
280
     0
281
     0
  0
CLASS
  1
VISUALSTYLE
  2
AcDbVisualStyle
  3
ObjectDBX Classes
 90
     4095
 91
       16
280
     0
281
     0
  0
CLASS
  1
SCALE
  2
AcDbScale
  3
ObjectDBX Classes
 90
     1153
 91
       33
280
     0
281
     0
  0
CLASS
  1
TABLESTYLE
  2
AcDbTableStyle
  3
ObjectDBX Classes
 90
     4095
 91
        1
280
     0
281
     0
  0
CLASS
  1
MLEADERSTYLE
  2
AcDbMLeaderStyle
  3
ACDB_MLEADERSTYLE_CLASS
 90
     4095
 91
        1
280
     0
281
     0
  0
CLASS
  1
DICTIONARYVAR
  2
AcDbDictionaryVar
  3
ObjectDBX Classes
 90
        0
 91
        3
280
     0
281
     0
  0
CLASS
  1
CELLSTYLEMAP
  2
AcDbCellStyleMap
  3
ObjectDBX Classes
 90
     1152
 91
        1
280
     0
281
     0
  0
ENDSEC
  0
SECTION
  2
TABLES
  0
TABLE
  2
VPORT
  5
8
330
0
100
AcDbSymbolTable
 70
     1
  0
VPORT
  5
5F
330
8
100
AcDbSymbolTableRecord
100
AcDbViewportTableRecord
  2
*Active
 70
     0
 10
0.0
 20
0.0
 11
1.0
 21
1.0
 12
0.0
 22
2.703124970197677
 13
0.0
 23
0.0
 14
1.0
 24
1.0
 15
0.0
 25
0.0
 16
-6.756343269604665
 26
6.75634326960467
 36
6.756343269604662
 17
0.000000000000018
 27
2.703125000000531
 37
37.92122865231988
 40
5.718750178813933
 41
1.923497249306311
 42
50.0
 43
0.0
 44
0.0
 50
0.0
 51
0.0
 71
     0
 72
   100
 73
     1
 74
     1
 75
     0
 76
     0
 77
     0
 78
     0
281
     6
 65
     1
110
0.0
120
0.0
130
0.0
111
1.0
121
0.0
131
0.0
112
0.0
122
1.0
132
0.0
 79
     0
146
0.0
348
2D
 60
     3
 61
     5
292
     1
282
     1
141
0.0
142
0.0
 63
   250
421
  3355443
  0
ENDTAB
  0
TABLE
  2
LTYPE
  5
5
330
0
100
AcDbSymbolTable
 70
     1
  0
LTYPE
  5
63
330
5
100
AcDbSymbolTableRecord
100
AcDbLinetypeTableRecord
  2
ByBlock
 70
     0
  3

 72
    65
 73
     0
 40
0.0
  0
LTYPE
  5
64
330
5
100
AcDbSymbolTableRecord
100
AcDbLinetypeTableRecord
  2
ByLayer
 70
     0
  3

 72
    65
 73
     0
 40
0.0
  0
LTYPE
  5
65
330
5
100
AcDbSymbolTableRecord
100
AcDbLinetypeTableRecord
  2
Continuous
 70
     0
  3
Solid line
 72
    65
 73
     0
 40
0.0
  0
ENDTAB
  0
TABLE
  2
LAYER
  5
2
330
0
100
AcDbSymbolTable
 70
     2
  0
LAYER
  5
5C
330
2
100
AcDbSymbolTableRecord
100
AcDbLayerTableRecord
  2
0
 70
     0
 62
     7
  6
Continuous
370
    -3
390
F
347
21
  0
LAYER
  5
7E
330
2
100
AcDbSymbolTableRecord
100
AcDbLayerTableRecord
  2
3D-GENM
 70
     0
 62
     6
  6
Continuous
370
     9
390
F
347
21
  0
ENDTAB
  0
TABLE
  2
STYLE
  5
3
330
0
100
AcDbSymbolTable
 70
     2
  0
STYLE
  5
5D
330
3
100
AcDbSymbolTableRecord
100
AcDbTextStyleTableRecord
  2
Standard
 70
     0
 40
0.0
 41
1.0
 50
0.0
 71
     0
 42
0.2
  3
txt
  4

  0
STYLE
  5
62
330
3
100
AcDbSymbolTableRecord
100
AcDbTextStyleTableRecord
  2
Annotative
 70
     0
 40
0.0
 41
1.0
 50
0.0
 71
     0
 42
0.2
  3
txt
  4

1001
AcadAnnotative
1000
AnnotativeData
1002
{
1070
     1
1070
     1
1002
}
  0
ENDTAB
  0
TABLE
  2
VIEW
  5
6
330
0
100
AcDbSymbolTable
 70
     1
  0
VIEW
  5
7C4
330
6
100
AcDbSymbolTableRecord
100
AcDbViewTableRecord
  2
3D Presentation
 70
     0
 40
2400.0
 10
0.0
 20
0.0
 41
2400.0
 11
-6.756343269604665
 21
6.75634326960467
 31
6.756343269604662
 12
0.000000000000018
 22
2.703125000000531
 32
37.92122865231988
 42
50.0
 43
0.0
 44
0.0
 50
0.0
 71
     0
281
     0
 72
     0
 73
     0
  0
ENDTAB
  0
TABLE
  2
UCS
  5
7
330
0
100
AcDbSymbolTable
 70
     0
  0
ENDTAB
  0
TABLE
  2
APPID
  5
9
330
0
100
AcDbSymbolTable
 70
     4
  0
APPID
  5
5E
330
9
100
AcDbSymbolTableRecord
100
AcDbRegAppTableRecord
  2
ACAD
 70
     0
  0
APPID
  5
66
330
9
100
AcDbSymbolTableRecord
100
AcDbRegAppTableRecord
  2
AcadAnnotative
 70
     0
  0
APPID
  5
70
330
9
100
AcDbSymbolTableRecord
100
AcDbRegAppTableRecord
  2
ACAD_MLEADERVER
 70
     0
  0
APPID
  5
7D
330
9
100
AcDbSymbolTableRecord
100
AcDbRegAppTableRecord
  2
REVIT
 70
     0
  0
ENDTAB
  0
TABLE
  2
DIMSTYLE
  5
A
330
0
100
AcDbSymbolTable
 70
     2
100
AcDbDimStyleTable
 71
     0
  0
DIMSTYLE
105
60
330
A
100
AcDbSymbolTableRecord
100
AcDbDimStyleTableRecord
  2
Standard
 70
     0
340
5D
  0
DIMSTYLE
105
61
330
A
100
AcDbSymbolTableRecord
100
AcDbDimStyleTableRecord
  2
Annotative
 70
     0
340
5D
1001
AcadAnnotative
1000
AnnotativeData
1002
{
1070
     1
1070
     1
1002
}
  0
ENDTAB
  0
TABLE
  2
BLOCK_RECORD
  5
1
330
0
100
AcDbSymbolTable
 70
     2
  0
BLOCK_RECORD
  5
75
330
1
100
AcDbSymbolTableRecord
100
AcDbBlockTableRecord
  2
*Model_Space
340
78
 70
     0
280
     1
281
     0
  0
BLOCK_RECORD
  5
71
330
1
100
AcDbSymbolTableRecord
100
AcDbBlockTableRecord
  2
*Paper_Space
340
74
 70
     0
280
     1
281
     0
  0
BLOCK_RECORD
  5
79
330
1
100
AcDbSymbolTableRecord
100
AcDbBlockTableRecord
  2
*Paper_Space0
340
7C
 70
     0
280
     1
281
     0
  0
BLOCK_RECORD
  5
7F
330
1
100
AcDbSymbolTableRecord
100
AcDbBlockTableRecord
  2
Family1 - Family1_1-4698-3D Presentation
340
0
102
{BLKREFS
331
7C3
102
}
 70
     0
280
     1
281
     0
  0
ENDTAB
  0
ENDSEC
  0
SECTION
  2
BLOCKS
  0
BLOCK
  5
76
330
75
100
AcDbEntity
  8
0
100
AcDbBlockBegin
  2
*Model_Space
 70
     0
 10
0.0
 20
0.0
 30
0.0
  3
*Model_Space
  1

  0
ENDBLK
  5
77
330
75
100
AcDbEntity
  8
0
100
AcDbBlockEnd
  0
BLOCK
  5
72
330
71
100
AcDbEntity
 67
     1
  8
0
100
AcDbBlockBegin
  2
*Paper_Space
 70
     0
 10
0.0
 20
0.0
 30
0.0
  3
*Paper_Space
  1

  0
ENDBLK
  5
73
330
71
100
AcDbEntity
 67
     1
  8
0
100
AcDbBlockEnd
  0
BLOCK
  5
7A
330
79
100
AcDbEntity
 67
     1
  8
0
100
AcDbBlockBegin
  2
*Paper_Space0
 70
     0
 10
0.0
 20
0.0
 30
0.0
  3
*Paper_Space0
  1

  0
ENDBLK
  5
7B
330
79
100
AcDbEntity
 67
     1
  8
0
100
AcDbBlockEnd
  0
BLOCK
  5
7C1
330
7F
100
AcDbEntity
  8
0
100
AcDbBlockBegin
  2
Family1 - Family1_1-4698-3D Presentation
 70
     0
 10
0.0
 20
0.0
 30
0.0
  3
Family1 - Family1_1-4698-3D Presentation
  1

  0
POLYLINE
  5
80
330
7F
100
AcDbEntity
  8
3D-GENM
100
AcDbPolyFaceMesh
 66
     1
 10
0.0
 20
0.0
 30
0.0
 70
    64
 71
    28
 72
    15
1001
REVIT
1002
{
1070
     4
1000
6208
1002
}
  0
VERTEX
  5
81
330
80
100
AcDbEntity
  8
3D-GENM
100
AcDbVertex
100
AcDbPolyFaceMeshVertex
 10
-4.999999880790709
 20
7.56249976158142
 30
-2.569323956966399
 70
   192
  0
VERTEX
  5
82
330
80
100
AcDbEntity
  8
3D-GENM
100
AcDbVertex
100
AcDbPolyFaceMeshVertex
 10
-5.06470477581024
 20
7.553981781005858
 30
-2.569323956966399
 70
   192
  0
VERTEX
  5
83
330
80
100
AcDbEntity
  8
3D-GENM
100
AcDbVertex
100
AcDbPolyFaceMeshVertex
 10
-5.125000119209288
 20
7.529006481170653
 30
-2.569323956966399
 70
   192
  0
VERTEX
  5
84
330
80
100
AcDbEntity
  8
3D-GENM
100
AcDbVertex
100
AcDbPolyFaceMeshVertex
 10
-5.176776766777037
 20
7.489276885986327
 30
-2.569323956966399
 70
   192
  0
VERTEX
  5
85
330
80
100
AcDbEntity
  8
3D-GENM
100
AcDbVertex
100
AcDbPolyFaceMeshVertex
 10
-5.216506361961363
 20
7.437500238418578
 30
-2.569323956966399
 70
   192
  0
VERTEX
  5
86
330
80
100
AcDbEntity
  8
3D-GENM
100
AcDbVertex
100
AcDbPolyFaceMeshVertex
 10
-5.2414813041687
 20
7.37720489501953
 30
-2.569323956966399
 70
   192
  0
VERTEX
  5
87
330
80
100
AcDbEntity
  8
3D-GENM
100
AcDbVertex
100
AcDbPolyFaceMeshVertex
 10
-5.249999999999999
 20
7.312499999999999
 30
-2.569323956966399
 70
   192
  0
VERTEX
  5
88
330
80
100
AcDbEntity
  8
3D-GENM
100
AcDbVertex
100
AcDbPolyFaceMeshVertex
 10
-5.249999999999999
 20
-7.312499999999999
 30
-2.569323956966399
 70
   192
  0
VERTEX
  5
89
330
80
100
AcDbEntity
  8
3D-GENM
100
AcDbVertex
100
AcDbPolyFaceMeshVertex
 10
-5.2414813041687
 20
-7.37720489501953
 30
-2.569323956966399
 70
   192
  0
VERTEX
  5
8A
330
80
100
AcDbEntity
  8
3D-GENM
100
AcDbVertex
100
AcDbPolyFaceMeshVertex
 10
-5.216506361961363
 20
-7.437500238418578
 30
-2.569323956966399
 70
   192
  0
VERTEX
  5
8B
330
80
100
AcDbEntity
  8
3D-GENM
100
AcDbVertex
100
AcDbPolyFaceMeshVertex
 10
-5.176776766777037
 20
-7.489276885986327
 30
-2.569323956966399
 70
   192
  0
VERTEX
  5
8C
330
80
100
AcDbEntity
  8
3D-GENM
100
AcDbVertex
100
AcDbPolyFaceMeshVertex
 10
-5.125000119209288
 20
-7.529006481170653
 30
-2.569323956966399
 70
   192
  0
VERTEX
  5
8D
330
80
100
AcDbEntity
  8
3D-GENM
100
AcDbVertex
100
AcDbPolyFaceMeshVertex
 10
-5.06470477581024
 20
-7.553981781005858
 30
-2.569323956966399
 70
   192
  0
VERTEX
  5
8E
330
80
100
AcDbEntity
  8
3D-GENM
100
AcDbVertex
100
AcDbPolyFaceMeshVertex
 10
-4.999999880790709
 20
-7.56249976158142
 30
-2.569323956966399
 70
   192
  0
VERTEX
  5
8F
330
80
100
AcDbEntity
  8
3D-GENM
100
AcDbVertex
100
AcDbPolyFaceMeshVertex
 10
4.999999880790709
 20
-7.56249976158142
 30
-2.569323956966399
 70
   192
  0
VERTEX
  5
90
330
80
100
AcDbEntity
  8
3D-GENM
100
AcDbVertex
100
AcDbPolyFaceMeshVertex
 10
5.06470477581024
 20
-7.553981781005858
 30
-2.569323956966399
 70
   192
  0
VERTEX
  5
91
330
80
100
AcDbEntity
  8
3D-GENM
100
AcDbVertex
100
AcDbPolyFaceMeshVertex
 10
5.125000119209288
 20
-7.529006481170653
 30
-2.569323956966399
 70
   192
  0
VERTEX
  5
92
330
80
100
AcDbEntity
  8
3D-GENM
100
AcDbVertex
100
AcDbPolyFaceMeshVertex
 10
5.176776766777037
 20
-7.489276885986327
 30
-2.569323956966399
 70
   192
  0
VERTEX
  5
93
330
80
100
AcDbEntity
  8
3D-GENM
100
AcDbVertex
100
AcDbPolyFaceMeshVertex
 10
5.216506361961363
 20
-7.437500238418578
 30
-2.569323956966399
 70
   192
  0
VERTEX
  5
94
330
80
100
AcDbEntity
  8
3D-GENM
100
AcDbVertex
100
AcDbPolyFaceMeshVertex
 10
5.2414813041687
 20
-7.37720489501953
 30
-2.569323956966399
 70
   192
  0
VERTEX
  5
95
330
80
100
AcDbEntity
  8
3D-GENM
100
AcDbVertex
100
AcDbPolyFaceMeshVertex
 10
5.249999999999999
 20
-7.312499999999999
 30
-2.569323956966399
 70
   192
  0
VERTEX
  5
96
330
80
100
AcDbEntity
  8
3D-GENM
100
AcDbVertex
100
AcDbPolyFaceMeshVertex
 10
5.249999999999999
 20
7.312499999999999
 30
-2.569323956966399
 70
   192
  0
VERTEX
  5
97
330
80
100
AcDbEntity
  8
3D-GENM
100
AcDbVertex
100
AcDbPolyFaceMeshVertex
 10
5.2414813041687
 20
7.37720489501953
 30
-2.569323956966399
 70
   192
  0
VERTEX
  5
98
330
80
100
AcDbEntity
  8
3D-GENM
100
AcDbVertex
100
AcDbPolyFaceMeshVertex
 10
5.216506361961363
 20
7.437500238418578
 30
-2.569323956966399
 70
   192
  0
VERTEX
  5
99
330
80
100
AcDbEntity
  8
3D-GENM
100
AcDbVertex
100
AcDbPolyFaceMeshVertex
 10
5.176776766777037
 20
7.489276885986327
 30
-2.569323956966399
 70
   192
  0
VERTEX
  5
9A
330
80
100
AcDbEntity
  8
3D-GENM
100
AcDbVertex
100
AcDbPolyFaceMeshVertex
 10
5.125000119209288
 20
7.529006481170653
 30
-2.569323956966399
 70
   192
  0
VERTEX
  5
9B
330
80
100
AcDbEntity
  8
3D-GENM
100
AcDbVertex
100
AcDbPolyFaceMeshVertex
 10
5.06470477581024
 20
7.553981781005858
 30
-2.569323956966399
 70
   192
  0
VERTEX
  5
9C
330
80
100
AcDbEntity
  8
3D-GENM
100
AcDbVertex
100
AcDbPolyFaceMeshVertex
 10
4.999999880790709
 20
7.56249976158142
 30
-2.569323956966399
 70
   192
  0
VERTEX
  5
9D
330
80
100
AcDbEntity
  8
3D-GENM
100
AcDbFaceRecord
 10
0.0
 20
0.0
 30
0.0
 70
   128
 71
   -21
 72
    15
 73
   -16
 74
   -18
  0
VERTEX
  5
9E
330
80
100
AcDbEntity
  8
3D-GENM
100
AcDbFaceRecord
 10
0.0
 20
0.0
 30
0.0
 70
   128
 71
   -18
 72
    16
 73
    17
  0
VERTEX
  5
9F
330
80
100
AcDbEntity
  8
3D-GENM
100
AcDbFaceRecord
 10
0.0
 20
0.0
 30
0.0
 70
   128
 71
    19
 72
    20
 73
   -21
 74
    18
  0
VERTEX
  5
A0
330
80
100
AcDbEntity
  8
3D-GENM
100
AcDbFaceRecord
 10
0.0
 20
0.0
 30
0.0
 70
   128
 71
   -15
 72
   -21
 73
    -8
 74
    14
  0
VERTEX
  5
A1
330
80
100
AcDbEntity
  8
3D-GENM
100
AcDbFaceRecord
 10
0.0
 20
0.0
 30
0.0
 70
   128
 71
    12
 72
    13
 73
   -14
 74
    -8
  0
VERTEX
  5
A2
330
80
100
AcDbEntity
  8
3D-GENM
100
AcDbFaceRecord
 10
0.0
 20
0.0
 30
0.0
 70
   128
 71
    10
 72
    11
 73
   -12
 74
     9
  0
VERTEX
  5
A3
330
80
100
AcDbEntity
  8
3D-GENM
100
AcDbFaceRecord
 10
0.0
 20
0.0
 30
0.0
 70
   128
 71
     8
 72
    -9
 73
   -12
  0
VERTEX
  5
A4
330
80
100
AcDbEntity
  8
3D-GENM
100
AcDbFaceRecord
 10
0.0
 20
0.0
 30
0.0
 70
   128
 71
    -8
 72
    21
 73
   -22
 74
     7
  0
VERTEX
  5
A5
330
80
100
AcDbEntity
  8
3D-GENM
100
AcDbFaceRecord
 10
0.0
 20
0.0
 30
0.0
 70
   128
 71
    22
 72
    23
 73
    24
 74
   -25
  0
VERTEX
  5
A6
330
80
100
AcDbEntity
  8
3D-GENM
100
AcDbFaceRecord
 10
0.0
 20
0.0
 30
0.0
 70
   128
 71
    25
 72
    26
 73
   -27
  0
VERTEX
  5
A7
330
80
100
AcDbEntity
  8
3D-GENM
100
AcDbFaceRecord
 10
0.0
 20
0.0
 30
0.0
 70
   128
 71
    27
 72
   -28
 73
   -22
 74
   -25
  0
VERTEX
  5
A8
330
80
100
AcDbEntity
  8
3D-GENM
100
AcDbFaceRecord
 10
0.0
 20
0.0
 30
0.0
 70
   128
 71
   -22
 72
    28
 73
    -1
  0
VERTEX
  5
A9
330
80
100
AcDbEntity
  8
3D-GENM
100
AcDbFaceRecord
 10
0.0
 20
0.0
 30
0.0
 70
   128
 71
     5
 72
     6
 73
    -7
 74
     4
  0
VERTEX
  5
AA
330
80
100
AcDbEntity
  8
3D-GENM
100
AcDbFaceRecord
 10
0.0
 20
0.0
 30
0.0
 70
   128
 71
    -4
 72
    -7
 73
     2
 74
     3
  0
VERTEX
  5
AB
330
80
100
AcDbEntity
  8
3D-GENM
100
AcDbFaceRecord
 10
0.0
 20
0.0
 30
0.0
 70
   128
 71
     1
 72
    -2
 73
    -7
 74
   -22
  0
SEQEND
  5
AC
330
80
100
AcDbEntity
  8
3D-GENM
  0
POLYLINE
  5
AD
330
7F
100
AcDbEntity
  8
3D-GENM
100
AcDbPolyFaceMesh
 66
     1
 10
0.0
 20
0.0
 30
0.0
 70
    64
 71
    28
 72
    15
1001
REVIT
1002
{
1070
     4
1000
6208
1002
}
  0
VERTEX
  5
AE
330
AD
100
AcDbEntity
  8
3D-GENM
100
AcDbVertex
100
AcDbPolyFaceMeshVertex
 10
-4.999999880790709
 20
7.56249976158142
 30
-3.156250119209289
 70
   192
  0
VERTEX
  5
AF
330
AD
100
AcDbEntity
  8
3D-GENM
100
AcDbVertex
100
AcDbPolyFaceMeshVertex
 10
4.999999880790709
 20
7.56249976158142
 30
-3.156250119209289
 70
   192
  0
VERTEX
  5
B0
330
AD
100
AcDbEntity
  8
3D-GENM
100
AcDbVertex
100
AcDbPolyFaceMeshVertex
 10
5.06470477581024
 20
7.553981781005858
 30
-3.156250119209289
 70
   192
  0
VERTEX
  5
B1
330
AD
100
AcDbEntity
  8
3D-GENM
100
AcDbVertex
100
AcDbPolyFaceMeshVertex
 10
5.125000119209288
 20
7.529006481170653
 30
-3.156250119209289
 70
   192
  0
VERTEX
  5
B2
330
AD
100
AcDbEntity
  8
3D-GENM
100
AcDbVertex
100
AcDbPolyFaceMeshVertex
 10
5.176776766777037
 20
7.489276885986327
 30
-3.156250119209289
 70
   192
  0
VERTEX
  5
B3
330
AD
100
AcDbEntity
  8
3D-GENM
100
AcDbVertex
100
AcDbPolyFaceMeshVertex
 10
5.216506361961363
 20
7.437500238418578
 30
-3.156250119209289
 70
   192
  0
VERTEX
  5
B4
330
AD
100
AcDbEntity
  8
3D-GENM
100
AcDbVertex
100
AcDbPolyFaceMeshVertex
 10
5.2414813041687
 20
7.37720489501953
 30
-3.156250119209289
 70
   192
  0
VERTEX
  5
B5
330
AD
100
AcDbEntity
  8
3D-GENM
100
AcDbVertex
100
AcDbPolyFaceMeshVertex
 10
5.249999999999999
 20
7.312499999999999
 30
-3.156250119209289
 70
   192
  0
VERTEX
  5
B6
330
AD
100
AcDbEntity
  8
3D-GENM
100
AcDbVertex
100
AcDbPolyFaceMeshVertex
 10
5.249999999999999
 20
-7.312499999999999
 30
-3.156250119209289
 70
   192
  0
VERTEX
  5
B7
330
AD
100
AcDbEntity
  8
3D-GENM
100
AcDbVertex
100
AcDbPolyFaceMeshVertex
 10
5.2414813041687
 20
-7.37720489501953
 30
-3.156250119209289
 70
   192
  0
VERTEX
  5
B8
330
AD
100
AcDbEntity
  8
3D-GENM
100
AcDbVertex
100
AcDbPolyFaceMeshVertex
 10
5.216506361961363
 20
-7.437500238418578
 30
-3.156250119209289
 70
   192
  0
VERTEX
  5
B9
330
AD
100
AcDbEntity
  8
3D-GENM
100
AcDbVertex
100
AcDbPolyFaceMeshVertex
 10
5.176776766777037
 20
-7.489276885986327
 30
-3.156250119209289
 70
   192
  0
VERTEX
  5
BA
330
AD
100
AcDbEntity
  8
3D-GENM
100
AcDbVertex
100
AcDbPolyFaceMeshVertex
 10
5.125000119209288
 20
-7.529006481170653
 30
-3.156250119209289
 70
   192
  0
VERTEX
  5
BB
330
AD
100
AcDbEntity
  8
3D-GENM
100
AcDbVertex
100
AcDbPolyFaceMeshVertex
 10
5.06470477581024
 20
-7.553981781005858
 30
-3.156250119209289
 70
   192
  0
VERTEX
  5
BC
330
AD
100
AcDbEntity
  8
3D-GENM
100
AcDbVertex
100
AcDbPolyFaceMeshVertex
 10
4.999999880790709
 20
-7.56249976158142
 30
-3.156250119209289
 70
   192
  0
VERTEX
  5
BD
330
AD
100
AcDbEntity
  8
3D-GENM
100
AcDbVertex
100
AcDbPolyFaceMeshVertex
 10
-4.999999880790709
 20
-7.56249976158142
 30
-3.156250119209289
 70
   192
  0
VERTEX
  5
BE
330
AD
100
AcDbEntity
  8
3D-GENM
100
AcDbVertex
100
AcDbPolyFaceMeshVertex
 10
-5.06470477581024
 20
-7.553981781005858
 30
-3.156250119209289
 70
   192
  0
VERTEX
  5
BF
330
AD
100
AcDbEntity
  8
3D-GENM
100
AcDbVertex
100
AcDbPolyFaceMeshVertex
 10
-5.125000119209288
 20
-7.529006481170653
 30
-3.156250119209289
 70
   192
  0
VERTEX
  5
C0
330
AD
100
AcDbEntity
  8
3D-GENM
100
AcDbVertex
100
AcDbPolyFaceMeshVertex
 10
-5.176776766777037
 20
-7.489276885986327
 30
-3.156250119209289
 70
   192
  0
VERTEX
  5
C1
330
AD
100
AcDbEntity
  8
3D-GENM
100
AcDbVertex
100
AcDbPolyFaceMeshVertex
 10
-5.216506361961363
 20
-7.437500238418578
 30
-3.156250119209289
 70
   192
  0
VERTEX
  5
C2
330
AD
100
AcDbEntity
  8
3D-GENM
100
AcDbVertex
100
AcDbPolyFaceMeshVertex
 10
-5.2414813041687
 20
-7.37720489501953
 30
-3.156250119209289
 70
   192
  0
VERTEX
  5
C3
330
AD
100
AcDbEntity
  8
3D-GENM
100
AcDbVertex
100
AcDbPolyFaceMeshVertex
 10
-5.249999999999999
 20
-7.312499999999999
 30
-3.156250119209289
 70
   192
  0
VERTEX
  5
C4
330
AD
100
AcDbEntity
  8
3D-GENM
100
AcDbVertex
100
AcDbPolyFaceMeshVertex
 10
-5.249999999999999
 20
7.312499999999999
 30
-3.156250119209289
 70
   192
  0
VERTEX
  5
C5
330
AD
100
AcDbEntity
  8
3D-GENM
100
AcDbVertex
100
AcDbPolyFaceMeshVertex
 10
-5.2414813041687
 20
7.37720489501953
 30
-3.156250119209289
 70
   192
  0
VERTEX
  5
C6
330
AD
100
AcDbEntity
  8
3D-GENM
100
AcDbVertex
100
AcDbPolyFaceMeshVertex
 10
-5.216506361961363
 20
7.437500238418578
 30
-3.156250119209289
 70
   192
  0
VERTEX
  5
C7
330
AD
100
AcDbEntity
  8
3D-GENM
100
AcDbVertex
100
AcDbPolyFaceMeshVertex
 10
-5.176776766777037
 20
7.489276885986327
 30
-3.156250119209289
 70
   192
  0
VERTEX
  5
C8
330
AD
100
AcDbEntity
  8
3D-GENM
100
AcDbVertex
100
AcDbPolyFaceMeshVertex
 10
-5.125000119209288
 20
7.529006481170653
 30
-3.156250119209289
 70
   192
  0
VERTEX
  5
C9
330
AD
100
AcDbEntity
  8
3D-GENM
100
AcDbVertex
100
AcDbPolyFaceMeshVertex
 10
-5.06470477581024
 20
7.553981781005858
 30
-3.156250119209289
 70
   192
  0
VERTEX
  5
CA
330
AD
100
AcDbEntity
  8
3D-GENM
100
AcDbFaceRecord
 10
0.0
 20
0.0
 30
0.0
 70
   128
 71
    -8
 72
     2
 73
    -3
 74
    -5
  0
VERTEX
  5
CB
330
AD
100
AcDbEntity
  8
3D-GENM
100
AcDbFaceRecord
 10
0.0
 20
0.0
 30
0.0
 70
   128
 71
    -5
 72
     3
 73
     4
  0
VERTEX
  5
CC
330
AD
100
AcDbEntity
  8
3D-GENM
100
AcDbFaceRecord
 10
0.0
 20
0.0
 30
0.0
 70
   128
 71
     6
 72
     7
 73
    -8
 74
     5
  0
VERTEX
  5
CD
330
AD
100
AcDbEntity
  8
3D-GENM
100
AcDbFaceRecord
 10
0.0
 20
0.0
 30
0.0
 70
   128
 71
     1
 72
    -2
 73
    -8
 74
   -23
  0
VERTEX
  5
CE
330
AD
100
AcDbEntity
  8
3D-GENM
100
AcDbFaceRecord
 10
0.0
 20
0.0
 30
0.0
 70
   128
 71
    26
 72
    27
 73
   -28
 74
   -23
  0
VERTEX
  5
CF
330
AD
100
AcDbEntity
  8
3D-GENM
100
AcDbFaceRecord
 10
0.0
 20
0.0
 30
0.0
 70
   128
 71
   -23
 72
    28
 73
    -1
  0
VERTEX
  5
D0
330
AD
100
AcDbEntity
  8
3D-GENM
100
AcDbFaceRecord
 10
0.0
 20
0.0
 30
0.0
 70
   128
 71
    25
 72
   -26
 73
    23
 74
    24
  0
VERTEX
  5
D1
330
AD
100
AcDbEntity
  8
3D-GENM
100
AcDbFaceRecord
 10
0.0
 20
0.0
 30
0.0
 70
   128
 71
    22
 72
   -23
 73
     8
 74
    -9
  0
VERTEX
  5
D2
330
AD
100
AcDbEntity
  8
3D-GENM
100
AcDbFaceRecord
 10
0.0
 20
0.0
 30
0.0
 70
   128
 71
     9
 72
    10
 73
    11
 74
   -12
  0
VERTEX
  5
D3
330
AD
100
AcDbEntity
  8
3D-GENM
100
AcDbFaceRecord
 10
0.0
 20
0.0
 30
0.0
 70
   128
 71
    12
 72
    13
 73
   -14
  0
VERTEX
  5
D4
330
AD
100
AcDbEntity
  8
3D-GENM
100
AcDbFaceRecord
 10
0.0
 20
0.0
 30
0.0
 70
   128
 71
    14
 72
   -15
 73
    -9
 74
   -12
  0
VERTEX
  5
D5
330
AD
100
AcDbEntity
  8
3D-GENM
100
AcDbFaceRecord
 10
0.0
 20
0.0
 30
0.0
 70
   128
 71
    -9
 72
    15
 73
   -16
 74
   -22
  0
VERTEX
  5
D6
330
AD
100
AcDbEntity
  8
3D-GENM
100
AcDbFaceRecord
 10
0.0
 20
0.0
 30
0.0
 70
   128
 71
   -18
 72
    20
 73
    21
 74
   -22
  0
VERTEX
  5
D7
330
AD
100
AcDbEntity
  8
3D-GENM
100
AcDbFaceRecord
 10
0.0
 20
0.0
 30
0.0
 70
   128
 71
    16
 72
    17
 73
   -18
 74
   -22
  0
VERTEX
  5
D8
330
AD
100
AcDbEntity
  8
3D-GENM
100
AcDbFaceRecord
 10
0.0
 20
0.0
 30
0.0
 70
   128
 71
    19
 72
   -20
 73
    18
  0
SEQEND
  5
D9
330
AD
100
AcDbEntity
  8
3D-GENM
  0
POLYLINE
  5
DA
330
7F
100
AcDbEntity
  8
3D-GENM
100
AcDbPolyFaceMesh
 66
     1
 10
0.0
 20
0.0
 30
0.0
 70
    64
 71
    14
 72
     6
1001
REVIT
1002
{
1070
     4
1000
6208
1002
}
  0
VERTEX
  5
DB
330
DA
100
AcDbEntity
  8
3D-GENM
100
AcDbVertex
100
AcDbPolyFaceMeshVertex
 10
-5.249999999999999
 20
7.312499999999999
 30
-2.569323956966399
 70
   192
  0
VERTEX
  5
DC
330
DA
100
AcDbEntity
  8
3D-GENM
100
AcDbVertex
100
AcDbPolyFaceMeshVertex
 10
-5.2414813041687
 20
7.37720489501953
 30
-2.569323956966399
 70
   192
  0
VERTEX
  5
DD
330
DA
100
AcDbEntity
  8
3D-GENM
100
AcDbVertex
100
AcDbPolyFaceMeshVertex
 10
-5.216506361961363
 20
7.437500238418578
 30
-2.569323956966399
 70
   192
  0
VERTEX
  5
DE
330
DA
100
AcDbEntity
  8
3D-GENM
100
AcDbVertex
100
AcDbPolyFaceMeshVertex
 10
-5.176776766777037
 20
7.489276885986327
 30
-2.569323956966399
 70
   192
  0
VERTEX
  5
DF
330
DA
100
AcDbEntity
  8
3D-GENM
100
AcDbVertex
100
AcDbPolyFaceMeshVertex
 10
-5.125000119209288
 20
7.529006481170653
 30
-2.569323956966399
 70
   192
  0
VERTEX
  5
E0
330
DA
100
AcDbEntity
  8
3D-GENM
100
AcDbVertex
100
AcDbPolyFaceMeshVertex
 10
-5.06470477581024
 20
7.553981781005858
 30
-2.569323956966399
 70
   192
  0
VERTEX
  5
E1
330
DA
100
AcDbEntity
  8
3D-GENM
100
AcDbVertex
100
AcDbPolyFaceMeshVertex
 10
-4.999999880790709
 20
7.56249976158142
 30
-2.569323956966399
 70
   192
  0
VERTEX
  5
E2
330
DA
100
AcDbEntity
  8
3D-GENM
100
AcDbVertex
100
AcDbPolyFaceMeshVertex
 10
-4.999999880790709
 20
7.56249976158142
 30
-3.156250119209289
 70
   192
  0
VERTEX
  5
E3
330
DA
100
AcDbEntity
  8
3D-GENM
100
AcDbVertex
100
AcDbPolyFaceMeshVertex
 10
-5.06470477581024
 20
7.553981781005858
 30
-3.156250119209289
 70
   192
  0
VERTEX
  5
E4
330
DA
100
AcDbEntity
  8
3D-GENM
100
AcDbVertex
100
AcDbPolyFaceMeshVertex
 10
-5.125000119209288
 20
7.529006481170653
 30
-3.156250119209289
 70
   192
  0
VERTEX
  5
E5
330
DA
100
AcDbEntity
  8
3D-GENM
100
AcDbVertex
100
AcDbPolyFaceMeshVertex
 10
-5.176776766777037
 20
7.489276885986327
 30
-3.156250119209289
 70
   192
  0
VERTEX
  5
E6
330
DA
100
AcDbEntity
  8
3D-GENM
100
AcDbVertex
100
AcDbPolyFaceMeshVertex
 10
-5.216506361961363
 20
7.437500238418578
 30
-3.156250119209289
 70
   192
  0
VERTEX
  5
E7
330
DA
100
AcDbEntity
  8
3D-GENM
100
AcDbVertex
100
AcDbPolyFaceMeshVertex
 10
-5.2414813041687
 20
7.37720489501953
 30
-3.156250119209289
 70
   192
  0
VERTEX
  5
E8
330
DA
100
AcDbEntity
  8
3D-GENM
100
AcDbVertex
100
AcDbPolyFaceMeshVertex
 10
-5.249999999999999
 20
7.312499999999999
 30
-3.156250119209289
 70
   192
  0
VERTEX
  5
E9
330
DA
100
AcDbEntity
  8
3D-GENM
100
AcDbFaceRecord
 10
0.0
 20
0.0
 30
0.0
 70
   128
 71
     8
 72
    -9
 73
     6
 74
     7
  0
VERTEX
  5
EA
330
DA
100
AcDbEntity
  8
3D-GENM
100
AcDbFaceRecord
 10
0.0
 20
0.0
 30
0.0
 70
   128
 71
     9
 72
   -10
 73
     5
 74
    -6
  0
VERTEX
  5
EB
330
DA
100
AcDbEntity
  8
3D-GENM
100
AcDbFaceRecord
 10
0.0
 20
0.0
 30
0.0
 70
   128
 71
     4
 72
    -5
 73
    10
 74
   -11
  0
VERTEX
  5
EC
330
DA
100
AcDbEntity
  8
3D-GENM
100
AcDbFaceRecord
 10
0.0
 20
0.0
 30
0.0
 70
   128
 71
    11
 72
   -12
 73
     3
 74
    -4
  0
VERTEX
  5
ED
330
DA
100
AcDbEntity
  8
3D-GENM
100
AcDbFaceRecord
 10
0.0
 20
0.0
 30
0.0
 70
   128
 71
    12
 72
   -13
 73
     2
 74
    -3
  0
VERTEX
  5
EE
330
DA
100
AcDbEntity
  8
3D-GENM
100
AcDbFaceRecord
 10
0.0
 20
0.0
 30
0.0
 70
   128
 71
     1
 72
    -2
 73
    13
 74
    14
  0
SEQEND
  5
EF
330
DA
100
AcDbEntity
  8
3D-GENM
  0
POLYLINE
  5
F0
330
7F
100
AcDbEntity
  8
3D-GENM
100
AcDbPolyFaceMesh
 66
     1
 10
0.0
 20
0.0
 30
0.0
 70
    64
 71
     4
 72
     1
1001
REVIT
1002
{
1070
     4
1000
6208
1002
}
  0
VERTEX
  5
F1
330
F0
100
AcDbEntity
  8
3D-GENM
100
AcDbVertex
100
AcDbPolyFaceMeshVertex
 10
-5.249999999999999
 20
-7.312499999999999
 30
-2.569323956966399
 70
   192
  0
VERTEX
  5
F2
330
F0
100
AcDbEntity
  8
3D-GENM
100
AcDbVertex
100
AcDbPolyFaceMeshVertex
 10
-5.249999999999999
 20
7.312499999999999
 30
-2.569323956966399
 70
   192
  0
VERTEX
  5
F3
330
F0
100
AcDbEntity
  8
3D-GENM
100
AcDbVertex
100
AcDbPolyFaceMeshVertex
 10
-5.249999999999999
 20
7.312499999999999
 30
-3.156250119209289
 70
   192
  0
VERTEX
  5
F4
330
F0
100
AcDbEntity
  8
3D-GENM
100
AcDbVertex
100
AcDbPolyFaceMeshVertex
 10
-5.249999999999999
 20
-7.312499999999999
 30
-3.156250119209289
 70
   192
  0
VERTEX
  5
F5
330
F0
100
AcDbEntity
  8
3D-GENM
100
AcDbFaceRecord
 10
0.0
 20
0.0
 30
0.0
 70
   128
 71
     1
 72
     2
 73
     3
 74
     4
  0
SEQEND
  5
F6
330
F0
100
AcDbEntity
  8
3D-GENM
  0
POLYLINE
  5
F7
330
7F
100
AcDbEntity
  8
3D-GENM
100
AcDbPolyFaceMesh
 66
     1
 10
0.0
 20
0.0
 30
0.0
 70
    64
 71
    14
 72
     6
1001
REVIT
1002
{
1070
     4
1000
6208
1002
}
  0
VERTEX
  5
F8
330
F7
100
AcDbEntity
  8
3D-GENM
100
AcDbVertex
100
AcDbPolyFaceMeshVertex
 10
-4.999999880790709
 20
-7.56249976158142
 30
-2.569323956966399
 70
   192
  0
VERTEX
  5
F9
330
F7
100
AcDbEntity
  8
3D-GENM
100
AcDbVertex
100
AcDbPolyFaceMeshVertex
 10
-5.06470477581024
 20
-7.553981781005858
 30
-2.569323956966399
 70
   192
  0
VERTEX
  5
FA
330
F7
100
AcDbEntity
  8
3D-GENM
100
AcDbVertex
100
AcDbPolyFaceMeshVertex
 10
-5.125000119209288
 20
-7.529006481170653
 30
-2.569323956966399
 70
   192
  0
VERTEX
  5
FB
330
F7
100
AcDbEntity
  8
3D-GENM
100
AcDbVertex
100
AcDbPolyFaceMeshVertex
 10
-5.176776766777037
 20
-7.489276885986327
 30
-2.569323956966399
 70
   192
  0
VERTEX
  5
FC
330
F7
100
AcDbEntity
  8
3D-GENM
100
AcDbVertex
100
AcDbPolyFaceMeshVertex
 10
-5.216506361961363
 20
-7.437500238418578
 30
-2.569323956966399
 70
   192
  0
VERTEX
  5
FD
330
F7
100
AcDbEntity
  8
3D-GENM
100
AcDbVertex
100
AcDbPolyFaceMeshVertex
 10
-5.2414813041687
 20
-7.37720489501953
 30
-2.569323956966399
 70
   192
  0
VERTEX
  5
FE
330
F7
100
AcDbEntity
  8
3D-GENM
100
AcDbVertex
100
AcDbPolyFaceMeshVertex
 10
-5.249999999999999
 20
-7.312499999999999
 30
-2.569323956966399
 70
   192
  0
VERTEX
  5
FF
330
F7
100
AcDbEntity
  8
3D-GENM
100
AcDbVertex
100
AcDbPolyFaceMeshVertex
 10
-5.249999999999999
 20
-7.312499999999999
 30
-3.156250119209289
 70
   192
  0
VERTEX
  5
100
330
F7
100
AcDbEntity
  8
3D-GENM
100
AcDbVertex
100
AcDbPolyFaceMeshVertex
 10
-5.2414813041687
 20
-7.37720489501953
 30
-3.156250119209289
 70
   192
  0
VERTEX
  5
101
330
F7
100
AcDbEntity
  8
3D-GENM
100
AcDbVertex
100
AcDbPolyFaceMeshVertex
 10
-5.216506361961363
 20
-7.437500238418578
 30
-3.156250119209289
 70
   192
  0
VERTEX
  5
102
330
F7
100
AcDbEntity
  8
3D-GENM
100
AcDbVertex
100
AcDbPolyFaceMeshVertex
 10
-5.176776766777037
 20
-7.489276885986327
 30
-3.156250119209289
 70
   192
  0
VERTEX
  5
103
330
F7
100
AcDbEntity
  8
3D-GENM
100
AcDbVertex
100
AcDbPolyFaceMeshVertex
 10
-5.125000119209288
 20
-7.529006481170653
 30
-3.156250119209289
 70
   192
  0
VERTEX
  5
104
330
F7
100
AcDbEntity
  8
3D-GENM
100
AcDbVertex
100
AcDbPolyFaceMeshVertex
 10
-5.06470477581024
 20
-7.553981781005858
 30
-3.156250119209289
 70
   192
  0
VERTEX
  5
105
330
F7
100
AcDbEntity
  8
3D-GENM
100
AcDbVertex
100
AcDbPolyFaceMeshVertex
 10
-4.999999880790709
 20
-7.56249976158142
 30
-3.156250119209289
 70
   192
  0
VERTEX
  5
106
330
F7
100
AcDbEntity
  8
3D-GENM
100
AcDbFaceRecord
 10
0.0
 20
0.0
 30
0.0
 70
   128
 71
     8
 72
    -9
 73
     6
 74
     7
  0
VERTEX
  5
107
330
F7
100
AcDbEntity
  8
3D-GENM
100
AcDbFaceRecord
 10
0.0
 20
0.0
 30
0.0
 70
   128
 71
     9
 72
   -10
 73
     5
 74
    -6
  0
VERTEX
  5
108
330
F7
100
AcDbEntity
  8
3D-GENM
100
AcDbFaceRecord
 10
0.0
 20
0.0
 30
0.0
 70
   128
 71
     4
 72
    -5
 73
    10
 74
   -11
  0
VERTEX
  5
109
330
F7
100
AcDbEntity
  8
3D-GENM
100
AcDbFaceRecord
 10
0.0
 20
0.0
 30
0.0
 70
   128
 71
    11
 72
   -12
 73
     3
 74
    -4
  0
VERTEX
  5
10A
330
F7
100
AcDbEntity
  8
3D-GENM
100
AcDbFaceRecord
 10
0.0
 20
0.0
 30
0.0
 70
   128
 71
    12
 72
   -13
 73
     2
 74
    -3
  0
VERTEX
  5
10B
330
F7
100
AcDbEntity
  8
3D-GENM
100
AcDbFaceRecord
 10
0.0
 20
0.0
 30
0.0
 70
   128
 71
     1
 72
    -2
 73
    13
 74
    14
  0
SEQEND
  5
10C
330
F7
100
AcDbEntity
  8
3D-GENM
  0
POLYLINE
  5
10D
330
7F
100
AcDbEntity
  8
3D-GENM
100
AcDbPolyFaceMesh
 66
     1
 10
0.0
 20
0.0
 30
0.0
 70
    64
 71
     4
 72
     1
1001
REVIT
1002
{
1070
     4
1000
6208
1002
}
  0
VERTEX
  5
10E
330
10D
100
AcDbEntity
  8
3D-GENM
100
AcDbVertex
100
AcDbPolyFaceMeshVertex
 10
4.999999880790709
 20
-7.56249976158142
 30
-2.569323956966399
 70
   192
  0
VERTEX
  5
10F
330
10D
100
AcDbEntity
  8
3D-GENM
100
AcDbVertex
100
AcDbPolyFaceMeshVertex
 10
-4.999999880790709
 20
-7.56249976158142
 30
-2.569323956966399
 70
   192
  0
VERTEX
  5
110
330
10D
100
AcDbEntity
  8
3D-GENM
100
AcDbVertex
100
AcDbPolyFaceMeshVertex
 10
-4.999999880790709
 20
-7.56249976158142
 30
-3.156250119209289
 70
   192
  0
VERTEX
  5
111
330
10D
100
AcDbEntity
  8
3D-GENM
100
AcDbVertex
100
AcDbPolyFaceMeshVertex
 10
4.999999880790709
 20
-7.56249976158142
 30
-3.156250119209289
 70
   192
  0
VERTEX
  5
112
330
10D
100
AcDbEntity
  8
3D-GENM
100
AcDbFaceRecord
 10
0.0
 20
0.0
 30
0.0
 70
   128
 71
     4
 72
     1
 73
     2
 74
     3
  0
SEQEND
  5
113
330
10D
100
AcDbEntity
  8
3D-GENM
  0
POLYLINE
  5
114
330
7F
100
AcDbEntity
  8
3D-GENM
100
AcDbPolyFaceMesh
 66
     1
 10
0.0
 20
0.0
 30
0.0
 70
    64
 71
    14
 72
     6
1001
REVIT
1002
{
1070
     4
1000
6208
1002
}
  0
VERTEX
  5
115
330
114
100
AcDbEntity
  8
3D-GENM
100
AcDbVertex
100
AcDbPolyFaceMeshVertex
 10
5.249999999999999
 20
-7.312499999999999
 30
-2.569323956966399
 70
   192
  0
VERTEX
  5
116
330
114
100
AcDbEntity
  8
3D-GENM
100
AcDbVertex
100
AcDbPolyFaceMeshVertex
 10
5.2414813041687
 20
-7.37720489501953
 30
-2.569323956966399
 70
   192
  0
VERTEX
  5
117
330
114
100
AcDbEntity
  8
3D-GENM
100
AcDbVertex
100
AcDbPolyFaceMeshVertex
 10
5.216506361961363
 20
-7.437500238418578
 30
-2.569323956966399
 70
   192
  0
VERTEX
  5
118
330
114
100
AcDbEntity
  8
3D-GENM
100
AcDbVertex
100
AcDbPolyFaceMeshVertex
 10
5.176776766777037
 20
-7.489276885986327
 30
-2.569323956966399
 70
   192
  0
VERTEX
  5
119
330
114
100
AcDbEntity
  8
3D-GENM
100
AcDbVertex
100
AcDbPolyFaceMeshVertex
 10
5.125000119209288
 20
-7.529006481170653
 30
-2.569323956966399
 70
   192
  0
VERTEX
  5
11A
330
114
100
AcDbEntity
  8
3D-GENM
100
AcDbVertex
100
AcDbPolyFaceMeshVertex
 10
5.06470477581024
 20
-7.553981781005858
 30
-2.569323956966399
 70
   192
  0
VERTEX
  5
11B
330
114
100
AcDbEntity
  8
3D-GENM
100
AcDbVertex
100
AcDbPolyFaceMeshVertex
 10
4.999999880790709
 20
-7.56249976158142
 30
-2.569323956966399
 70
   192
  0
VERTEX
  5
11C
330
114
100
AcDbEntity
  8
3D-GENM
100
AcDbVertex
100
AcDbPolyFaceMeshVertex
 10
4.999999880790709
 20
-7.56249976158142
 30
-3.156250119209289
 70
   192
  0
VERTEX
  5
11D
330
114
100
AcDbEntity
  8
3D-GENM
100
AcDbVertex
100
AcDbPolyFaceMeshVertex
 10
5.06470477581024
 20
-7.553981781005858
 30
-3.156250119209289
 70
   192
  0
VERTEX
  5
11E
330
114
100
AcDbEntity
  8
3D-GENM
100
AcDbVertex
100
AcDbPolyFaceMeshVertex
 10
5.125000119209288
 20
-7.529006481170653
 30
-3.156250119209289
 70
   192
  0
VERTEX
  5
11F
330
114
100
AcDbEntity
  8
3D-GENM
100
AcDbVertex
100
AcDbPolyFaceMeshVertex
 10
5.176776766777037
 20
-7.489276885986327
 30
-3.156250119209289
 70
   192
  0
VERTEX
  5
120
330
114
100
AcDbEntity
  8
3D-GENM
100
AcDbVertex
100
AcDbPolyFaceMeshVertex
 10
5.216506361961363
 20
-7.437500238418578
 30
-3.156250119209289
 70
   192
  0
VERTEX
  5
121
330
114
100
AcDbEntity
  8
3D-GENM
100
AcDbVertex
100
AcDbPolyFaceMeshVertex
 10
5.2414813041687
 20
-7.37720489501953
 30
-3.156250119209289
 70
   192
  0
VERTEX
  5
122
330
114
100
AcDbEntity
  8
3D-GENM
100
AcDbVertex
100
AcDbPolyFaceMeshVertex
 10
5.249999999999999
 20
-7.312499999999999
 30
-3.156250119209289
 70
   192
  0
VERTEX
  5
123
330
114
100
AcDbEntity
  8
3D-GENM
100
AcDbFaceRecord
 10
0.0
 20
0.0
 30
0.0
 70
   128
 71
     8
 72
    -9
 73
     6
 74
     7
  0
VERTEX
  5
124
330
114
100
AcDbEntity
  8
3D-GENM
100
AcDbFaceRecord
 10
0.0
 20
0.0
 30
0.0
 70
   128
 71
     9
 72
   -10
 73
     5
 74
    -6
  0
VERTEX
  5
125
330
114
100
AcDbEntity
  8
3D-GENM
100
AcDbFaceRecord
 10
0.0
 20
0.0
 30
0.0
 70
   128
 71
     4
 72
    -5
 73
    10
 74
   -11
  0
VERTEX
  5
126
330
114
100
AcDbEntity
  8
3D-GENM
100
AcDbFaceRecord
 10
0.0
 20
0.0
 30
0.0
 70
   128
 71
    11
 72
   -12
 73
     3
 74
    -4
  0
VERTEX
  5
127
330
114
100
AcDbEntity
  8
3D-GENM
100
AcDbFaceRecord
 10
0.0
 20
0.0
 30
0.0
 70
   128
 71
    12
 72
   -13
 73
     2
 74
    -3
  0
VERTEX
  5
128
330
114
100
AcDbEntity
  8
3D-GENM
100
AcDbFaceRecord
 10
0.0
 20
0.0
 30
0.0
 70
   128
 71
     1
 72
    -2
 73
    13
 74
    14
  0
SEQEND
  5
129
330
114
100
AcDbEntity
  8
3D-GENM
  0
POLYLINE
  5
12A
330
7F
100
AcDbEntity
  8
3D-GENM
100
AcDbPolyFaceMesh
 66
     1
 10
0.0
 20
0.0
 30
0.0
 70
    64
 71
     4
 72
     1
1001
REVIT
1002
{
1070
     4
1000
6208
1002
}
  0
VERTEX
  5
12B
330
12A
100
AcDbEntity
  8
3D-GENM
100
AcDbVertex
100
AcDbPolyFaceMeshVertex
 10
5.249999999999999
 20
7.312499999999999
 30
-2.569323956966399
 70
   192
  0
VERTEX
  5
12C
330
12A
100
AcDbEntity
  8
3D-GENM
100
AcDbVertex
100
AcDbPolyFaceMeshVertex
 10
5.249999999999999
 20
-7.312499999999999
 30
-2.569323956966399
 70
   192
  0
VERTEX
  5
12D
330
12A
100
AcDbEntity
  8
3D-GENM
100
AcDbVertex
100
AcDbPolyFaceMeshVertex
 10
5.249999999999999
 20
-7.312499999999999
 30
-3.156250119209289
 70
   192
  0
VERTEX
  5
12E
330
12A
100
AcDbEntity
  8
3D-GENM
100
AcDbVertex
100
AcDbPolyFaceMeshVertex
 10
5.249999999999999
 20
7.312499999999999
 30
-3.156250119209289
 70
   192
  0
VERTEX
  5
12F
330
12A
100
AcDbEntity
  8
3D-GENM
100
AcDbFaceRecord
 10
0.0
 20
0.0
 30
0.0
 70
   128
 71
     1
 72
     2
 73
     3
 74
     4
  0
SEQEND
  5
130
330
12A
100
AcDbEntity
  8
3D-GENM
  0
POLYLINE
  5
131
330
7F
100
AcDbEntity
  8
3D-GENM
100
AcDbPolyFaceMesh
 66
     1
 10
0.0
 20
0.0
 30
0.0
 70
    64
 71
    14
 72
     6
1001
REVIT
1002
{
1070
     4
1000
6208
1002
}
  0
VERTEX
  5
132
330
131
100
AcDbEntity
  8
3D-GENM
100
AcDbVertex
100
AcDbPolyFaceMeshVertex
 10
4.999999880790709
 20
7.56249976158142
 30
-2.569323956966399
 70
   192
  0
VERTEX
  5
133
330
131
100
AcDbEntity
  8
3D-GENM
100
AcDbVertex
100
AcDbPolyFaceMeshVertex
 10
5.06470477581024
 20
7.553981781005858
 30
-2.569323956966399
 70
   192
  0
VERTEX
  5
134
330
131
100
AcDbEntity
  8
3D-GENM
100
AcDbVertex
100
AcDbPolyFaceMeshVertex
 10
5.125000119209288
 20
7.529006481170653
 30
-2.569323956966399
 70
   192
  0
VERTEX
  5
135
330
131
100
AcDbEntity
  8
3D-GENM
100
AcDbVertex
100
AcDbPolyFaceMeshVertex
 10
5.176776766777037
 20
7.489276885986327
 30
-2.569323956966399
 70
   192
  0
VERTEX
  5
136
330
131
100
AcDbEntity
  8
3D-GENM
100
AcDbVertex
100
AcDbPolyFaceMeshVertex
 10
5.216506361961363
 20
7.437500238418578
 30
-2.569323956966399
 70
   192
  0
VERTEX
  5
137
330
131
100
AcDbEntity
  8
3D-GENM
100
AcDbVertex
100
AcDbPolyFaceMeshVertex
 10
5.2414813041687
 20
7.37720489501953
 30
-2.569323956966399
 70
   192
  0
VERTEX
  5
138
330
131
100
AcDbEntity
  8
3D-GENM
100
AcDbVertex
100
AcDbPolyFaceMeshVertex
 10
5.249999999999999
 20
7.312499999999999
 30
-2.569323956966399
 70
   192
  0
VERTEX
  5
139
330
131
100
AcDbEntity
  8
3D-GENM
100
AcDbVertex
100
AcDbPolyFaceMeshVertex
 10
5.249999999999999
 20
7.312499999999999
 30
-3.156250119209289
 70
   192
  0
VERTEX
  5
13A
330
131
100
AcDbEntity
  8
3D-GENM
100
AcDbVertex
100
AcDbPolyFaceMeshVertex
 10
5.2414813041687
 20
7.37720489501953
 30
-3.156250119209289
 70
   192
  0
VERTEX
  5
13B
330
131
100
AcDbEntity
  8
3D-GENM
100
AcDbVertex
100
AcDbPolyFaceMeshVertex
 10
5.216506361961363
 20
7.437500238418578
 30
-3.156250119209289
 70
   192
  0
VERTEX
  5
13C
330
131
100
AcDbEntity
  8
3D-GENM
100
AcDbVertex
100
AcDbPolyFaceMeshVertex
 10
5.176776766777037
 20
7.489276885986327
 30
-3.156250119209289
 70
   192
  0
VERTEX
  5
13D
330
131
100
AcDbEntity
  8
3D-GENM
100
AcDbVertex
100
AcDbPolyFaceMeshVertex
 10
5.125000119209288
 20
7.529006481170653
 30
-3.156250119209289
 70
   192
  0
VERTEX
  5
13E
330
131
100
AcDbEntity
  8
3D-GENM
100
AcDbVertex
100
AcDbPolyFaceMeshVertex
 10
5.06470477581024
 20
7.553981781005858
 30
-3.156250119209289
 70
   192
  0
VERTEX
  5
13F
330
131
100
AcDbEntity
  8
3D-GENM
100
AcDbVertex
100
AcDbPolyFaceMeshVertex
 10
4.999999880790709
 20
7.56249976158142
 30
-3.156250119209289
 70
   192
  0
VERTEX
  5
140
330
131
100
AcDbEntity
  8
3D-GENM
100
AcDbFaceRecord
 10
0.0
 20
0.0
 30
0.0
 70
   128
 71
     8
 72
    -9
 73
     6
 74
     7
  0
VERTEX
  5
141
330
131
100
AcDbEntity
  8
3D-GENM
100
AcDbFaceRecord
 10
0.0
 20
0.0
 30
0.0
 70
   128
 71
     9
 72
   -10
 73
     5
 74
    -6
  0
VERTEX
  5
142
330
131
100
AcDbEntity
  8
3D-GENM
100
AcDbFaceRecord
 10
0.0
 20
0.0
 30
0.0
 70
   128
 71
     4
 72
    -5
 73
    10
 74
   -11
  0
VERTEX
  5
143
330
131
100
AcDbEntity
  8
3D-GENM
100
AcDbFaceRecord
 10
0.0
 20
0.0
 30
0.0
 70
   128
 71
    11
 72
   -12
 73
     3
 74
    -4
  0
VERTEX
  5
144
330
131
100
AcDbEntity
  8
3D-GENM
100
AcDbFaceRecord
 10
0.0
 20
0.0
 30
0.0
 70
   128
 71
    12
 72
   -13
 73
     2
 74
    -3
  0
VERTEX
  5
145
330
131
100
AcDbEntity
  8
3D-GENM
100
AcDbFaceRecord
 10
0.0
 20
0.0
 30
0.0
 70
   128
 71
     1
 72
    -2
 73
    13
 74
    14
  0
SEQEND
  5
146
330
131
100
AcDbEntity
  8
3D-GENM
  0
POLYLINE
  5
147
330
7F
100
AcDbEntity
  8
3D-GENM
100
AcDbPolyFaceMesh
 66
     1
 10
0.0
 20
0.0
 30
0.0
 70
    64
 71
     4
 72
     1
1001
REVIT
1002
{
1070
     4
1000
6208
1002
}
  0
VERTEX
  5
148
330
147
100
AcDbEntity
  8
3D-GENM
100
AcDbVertex
100
AcDbPolyFaceMeshVertex
 10
-4.999999880790709
 20
7.56249976158142
 30
-2.569323956966399
 70
   192
  0
VERTEX
  5
149
330
147
100
AcDbEntity
  8
3D-GENM
100
AcDbVertex
100
AcDbPolyFaceMeshVertex
 10
4.999999880790709
 20
7.56249976158142
 30
-2.569323956966399
 70
   192
  0
VERTEX
  5
14A
330
147
100
AcDbEntity
  8
3D-GENM
100
AcDbVertex
100
AcDbPolyFaceMeshVertex
 10
4.999999880790709
 20
7.56249976158142
 30
-3.156250119209289
 70
   192
  0
VERTEX
  5
14B
330
147
100
AcDbEntity
  8
3D-GENM
100
AcDbVertex
100
AcDbPolyFaceMeshVertex
 10
-4.999999880790709
 20
7.56249976158142
 30
-3.156250119209289
 70
   192
  0
VERTEX
  5
14C
330
147
100
AcDbEntity
  8
3D-GENM
100
AcDbFaceRecord
 10
0.0
 20
0.0
 30
0.0
 70
   128
 71
     4
 72
     1
 73
     2
 74
     3
  0
SEQEND
  5
14D
330
147
100
AcDbEntity
  8
3D-GENM
  0
POLYLINE
  5
14E
330
7F
100
AcDbEntity
  8
3D-GENM
100
AcDbPolyFaceMesh
 66
     1
 10
0.0
 20
0.0
 30
0.0
 70
    64
 71
    32
 72
    17
1001
REVIT
1002
{
1070
     4
1000
6208
1002
}
  0
VERTEX
  5
14F
330
14E
100
AcDbEntity
  8
3D-GENM
100
AcDbVertex
100
AcDbPolyFaceMeshVertex
 10
-4.999999880790709
 20
7.74999976158142
 30
2.000000059604644
 70
   192
  0
VERTEX
  5
150
330
14E
100
AcDbEntity
  8
3D-GENM
100
AcDbVertex
100
AcDbPolyFaceMeshVertex
 10
-5.129409670829772
 20
7.732963085174559
 30
2.000000059604644
 70
   192
  0
VERTEX
  5
151
330
14E
100
AcDbEntity
  8
3D-GENM
100
AcDbVertex
100
AcDbPolyFaceMeshVertex
 10
-5.249999999999999
 20
7.683012485504149
 30
2.000000059604644
 70
   192
  0
VERTEX
  5
152
330
14E
100
AcDbEntity
  8
3D-GENM
100
AcDbVertex
100
AcDbPolyFaceMeshVertex
 10
-5.353553295135497
 20
7.603553295135497
 30
2.000000059604644
 70
   192
  0
VERTEX
  5
153
330
14E
100
AcDbEntity
  8
3D-GENM
100
AcDbVertex
100
AcDbPolyFaceMeshVertex
 10
-5.433012843132018
 20
7.499999999999999
 30
2.000000059604644
 70
   192
  0
VERTEX
  5
154
330
14E
100
AcDbEntity
  8
3D-GENM
100
AcDbVertex
100
AcDbPolyFaceMeshVertex
 10
-5.482963085174559
 20
7.379409313201903
 30
2.000000059604644
 70
   192
  0
VERTEX
  5
155
330
14E
100
AcDbEntity
  8
3D-GENM
100
AcDbVertex
100
AcDbPolyFaceMeshVertex
 10
-5.500000119209288
 20
7.250000238418578
 30
2.000000059604644
 70
   192
  0
VERTEX
  5
156
330
14E
100
AcDbEntity
  8
3D-GENM
100
AcDbVertex
100
AcDbPolyFaceMeshVertex
 10
-5.500000119209288
 20
-7.250000238418578
 30
2.000000059604644
 70
   192
  0
VERTEX
  5
157
330
14E
100
AcDbEntity
  8
3D-GENM
100
AcDbVertex
100
AcDbPolyFaceMeshVertex
 10
-5.482963085174559
 20
-7.379409313201903
 30
2.000000059604644
 70
   192
  0
VERTEX
  5
158
330
14E
100
AcDbEntity
  8
3D-GENM
100
AcDbVertex
100
AcDbPolyFaceMeshVertex
 10
-5.433012843132018
 20
-7.499999999999999
 30
2.000000059604644
 70
   192
  0
VERTEX
  5
159
330
14E
100
AcDbEntity
  8
3D-GENM
100
AcDbVertex
100
AcDbPolyFaceMeshVertex
 10
-5.353553295135497
 20
-7.603553295135497
 30
2.000000059604644
 70
   192
  0
VERTEX
  5
15A
330
14E
100
AcDbEntity
  8
3D-GENM
100
AcDbVertex
100
AcDbPolyFaceMeshVertex
 10
-5.249999999999999
 20
-7.683012485504149
 30
2.000000059604644
 70
   192
  0
VERTEX
  5
15B
330
14E
100
AcDbEntity
  8
3D-GENM
100
AcDbVertex
100
AcDbPolyFaceMeshVertex
 10
-5.129409670829772
 20
-7.732963085174559
 30
2.000000059604644
 70
   192
  0
VERTEX
  5
15C
330
14E
100
AcDbEntity
  8
3D-GENM
100
AcDbVertex
100
AcDbPolyFaceMeshVertex
 10
-4.999999880790709
 20
-7.74999976158142
 30
2.000000059604644
 70
   192
  0
VERTEX
  5
15D
330
14E
100
AcDbEntity
  8
3D-GENM
100
AcDbVertex
100
AcDbPolyFaceMeshVertex
 10
4.999999880790709
 20
-7.74999976158142
 30
2.000000059604644
 70
   192
  0
VERTEX
  5
15E
330
14E
100
AcDbEntity
  8
3D-GENM
100
AcDbVertex
100
AcDbPolyFaceMeshVertex
 10
5.129409670829772
 20
-7.732963085174559
 30
2.000000059604644
 70
   192
  0
VERTEX
  5
15F
330
14E
100
AcDbEntity
  8
3D-GENM
100
AcDbVertex
100
AcDbPolyFaceMeshVertex
 10
5.249999999999999
 20
-7.683012485504149
 30
2.000000059604644
 70
   192
  0
VERTEX
  5
160
330
14E
100
AcDbEntity
  8
3D-GENM
100
AcDbVertex
100
AcDbPolyFaceMeshVertex
 10
5.353553295135497
 20
-7.603553295135497
 30
2.000000059604644
 70
   192
  0
VERTEX
  5
161
330
14E
100
AcDbEntity
  8
3D-GENM
100
AcDbVertex
100
AcDbPolyFaceMeshVertex
 10
5.433012843132018
 20
-7.499999999999999
 30
2.000000059604644
 70
   192
  0
VERTEX
  5
162
330
14E
100
AcDbEntity
  8
3D-GENM
100
AcDbVertex
100
AcDbPolyFaceMeshVertex
 10
5.482963085174559
 20
-7.379409313201903
 30
2.000000059604644
 70
   192
  0
VERTEX
  5
163
330
14E
100
AcDbEntity
  8
3D-GENM
100
AcDbVertex
100
AcDbPolyFaceMeshVertex
 10
5.500000119209288
 20
-7.250000238418578
 30
2.000000059604644
 70
   192
  0
VERTEX
  5
164
330
14E
100
AcDbEntity
  8
3D-GENM
100
AcDbVertex
100
AcDbPolyFaceMeshVertex
 10
5.500000119209288
 20
7.250000238418578
 30
2.000000059604644
 70
   192
  0
VERTEX
  5
165
330
14E
100
AcDbEntity
  8
3D-GENM
100
AcDbVertex
100
AcDbPolyFaceMeshVertex
 10
5.482963085174559
 20
7.379409313201903
 30
2.000000059604644
 70
   192
  0
VERTEX
  5
166
330
14E
100
AcDbEntity
  8
3D-GENM
100
AcDbVertex
100
AcDbPolyFaceMeshVertex
 10
5.433012843132018
 20
7.499999999999999
 30
2.000000059604644
 70
   192
  0
VERTEX
  5
167
330
14E
100
AcDbEntity
  8
3D-GENM
100
AcDbVertex
100
AcDbPolyFaceMeshVertex
 10
5.353553295135497
 20
7.603553295135497
 30
2.000000059604644
 70
   192
  0
VERTEX
  5
168
330
14E
100
AcDbEntity
  8
3D-GENM
100
AcDbVertex
100
AcDbPolyFaceMeshVertex
 10
5.249999999999999
 20
7.683012485504149
 30
2.000000059604644
 70
   192
  0
VERTEX
  5
169
330
14E
100
AcDbEntity
  8
3D-GENM
100
AcDbVertex
100
AcDbPolyFaceMeshVertex
 10
5.129409670829772
 20
7.732963085174559
 30
2.000000059604644
 70
   192
  0
VERTEX
  5
16A
330
14E
100
AcDbEntity
  8
3D-GENM
100
AcDbVertex
100
AcDbPolyFaceMeshVertex
 10
4.999999880790709
 20
7.74999976158142
 30
2.000000059604644
 70
   192
  0
VERTEX
  5
16B
330
14E
100
AcDbEntity
  8
3D-GENM
100
AcDbVertex
100
AcDbPolyFaceMeshVertex
 10
-3.937499999999999
 20
-6.110476255416869
 30
2.000000059604644
 70
   192
  0
VERTEX
  5
16C
330
14E
100
AcDbEntity
  8
3D-GENM
100
AcDbVertex
100
AcDbPolyFaceMeshVertex
 10
-3.937499999999999
 20
0.8895238637924192
 30
2.000000059604644
 70
   192
  0
VERTEX
  5
16D
330
14E
100
AcDbEntity
  8
3D-GENM
100
AcDbVertex
100
AcDbPolyFaceMeshVertex
 10
3.937499999999999
 20
0.8895238637924192
 30
2.000000059604644
 70
   192
  0
VERTEX
  5
16E
330
14E
100
AcDbEntity
  8
3D-GENM
100
AcDbVertex
100
AcDbPolyFaceMeshVertex
 10
3.937499999999999
 20
-6.110476255416869
 30
2.000000059604644
 70
   192
  0
VERTEX
  5
16F
330
14E
100
AcDbEntity
  8
3D-GENM
100
AcDbFaceRecord
 10
0.0
 20
0.0
 30
0.0
 70
   128
 71
    16
 72
    17
 73
    18
 74
   -19
  0
VERTEX
  5
170
330
14E
100
AcDbEntity
  8
3D-GENM
100
AcDbFaceRecord
 10
0.0
 20
0.0
 30
0.0
 70
   128
 71
    15
 72
   -16
 73
    19
 74
   -20
  0
VERTEX
  5
171
330
14E
100
AcDbEntity
  8
3D-GENM
100
AcDbFaceRecord
 10
0.0
 20
0.0
 30
0.0
 70
   128
 71
   -15
 72
    20
 73
   -21
 74
   -32
  0
VERTEX
  5
172
330
14E
100
AcDbEntity
  8
3D-GENM
100
AcDbFaceRecord
 10
0.0
 20
0.0
 30
0.0
 70
   128
 71
   -21
 72
    31
 73
   -32
  0
VERTEX
  5
173
330
14E
100
AcDbEntity
  8
3D-GENM
100
AcDbFaceRecord
 10
0.0
 20
0.0
 30
0.0
 70
   128
 71
   -15
 72
    32
 73
   -29
 74
    14
  0
VERTEX
  5
174
330
14E
100
AcDbEntity
  8
3D-GENM
100
AcDbFaceRecord
 10
0.0
 20
0.0
 30
0.0
 70
   128
 71
   -13
 72
    10
 73
    11
 74
    12
  0
VERTEX
  5
175
330
14E
100
AcDbEntity
  8
3D-GENM
100
AcDbFaceRecord
 10
0.0
 20
0.0
 30
0.0
 70
   128
 71
   -10
 72
    13
 73
   -14
 74
     9
  0
VERTEX
  5
176
330
14E
100
AcDbEntity
  8
3D-GENM
100
AcDbFaceRecord
 10
0.0
 20
0.0
 30
0.0
 70
   128
 71
     8
 72
    -9
 73
   -14
 74
   -29
  0
VERTEX
  5
177
330
14E
100
AcDbEntity
  8
3D-GENM
100
AcDbFaceRecord
 10
0.0
 20
0.0
 30
0.0
 70
   128
 71
    -8
 72
    29
 73
   -30
 74
     7
  0
VERTEX
  5
178
330
14E
100
AcDbEntity
  8
3D-GENM
100
AcDbFaceRecord
 10
0.0
 20
0.0
 30
0.0
 70
   128
 71
   -28
 72
    22
 73
    23
 74
   -24
  0
VERTEX
  5
179
330
14E
100
AcDbEntity
  8
3D-GENM
100
AcDbFaceRecord
 10
0.0
 20
0.0
 30
0.0
 70
   128
 71
   -22
 72
   -28
 73
   -31
 74
    21
  0
VERTEX
  5
17A
330
14E
100
AcDbEntity
  8
3D-GENM
100
AcDbFaceRecord
 10
0.0
 20
0.0
 30
0.0
 70
   128
 71
    25
 72
    26
 73
   -27
  0
VERTEX
  5
17B
330
14E
100
AcDbEntity
  8
3D-GENM
100
AcDbFaceRecord
 10
0.0
 20
0.0
 30
0.0
 70
   128
 71
    27
 72
   -28
 73
    24
 74
   -25
  0
VERTEX
  5
17C
330
14E
100
AcDbEntity
  8
3D-GENM
100
AcDbFaceRecord
 10
0.0
 20
0.0
 30
0.0
 70
   128
 71
    30
 72
   -31
 73
    28
 74
    -1
  0
VERTEX
  5
17D
330
14E
100
AcDbEntity
  8
3D-GENM
100
AcDbFaceRecord
 10
0.0
 20
0.0
 30
0.0
 70
   128
 71
    -1
 72
     6
 73
    -7
 74
   -30
  0
VERTEX
  5
17E
330
14E
100
AcDbEntity
  8
3D-GENM
100
AcDbFaceRecord
 10
0.0
 20
0.0
 30
0.0
 70
   128
 71
     5
 72
    -6
 73
     1
 74
    -2
  0
VERTEX
  5
17F
330
14E
100
AcDbEntity
  8
3D-GENM
100
AcDbFaceRecord
 10
0.0
 20
0.0
 30
0.0
 70
   128
 71
     4
 72
    -5
 73
     2
 74
     3
  0
SEQEND
  5
180
330
14E
100
AcDbEntity
  8
3D-GENM
  0
POLYLINE
  5
181
330
7F
100
AcDbEntity
  8
3D-GENM
100
AcDbPolyFaceMesh
 66
     1
 10
0.0
 20
0.0
 30
0.0
 70
    64
 71
    32
 72
    17
1001
REVIT
1002
{
1070
     4
1000
6208
1002
}
  0
VERTEX
  5
182
330
181
100
AcDbEntity
  8
3D-GENM
100
AcDbVertex
100
AcDbPolyFaceMeshVertex
 10
-4.999999880790709
 20
7.74999976158142
 30
-0.0000000000000735
 70
   192
  0
VERTEX
  5
183
330
181
100
AcDbEntity
  8
3D-GENM
100
AcDbVertex
100
AcDbPolyFaceMeshVertex
 10
4.999999880790709
 20
7.74999976158142
 30
-0.0000000000000735
 70
   192
  0
VERTEX
  5
184
330
181
100
AcDbEntity
  8
3D-GENM
100
AcDbVertex
100
AcDbPolyFaceMeshVertex
 10
5.129409670829772
 20
7.732963085174559
 30
-0.0000000000000735
 70
   192
  0
VERTEX
  5
185
330
181
100
AcDbEntity
  8
3D-GENM
100
AcDbVertex
100
AcDbPolyFaceMeshVertex
 10
5.249999999999999
 20
7.683012485504149
 30
-0.0000000000000735
 70
   192
  0
VERTEX
  5
186
330
181
100
AcDbEntity
  8
3D-GENM
100
AcDbVertex
100
AcDbPolyFaceMeshVertex
 10
5.353553295135497
 20
7.603553295135497
 30
-0.0000000000000735
 70
   192
  0
VERTEX
  5
187
330
181
100
AcDbEntity
  8
3D-GENM
100
AcDbVertex
100
AcDbPolyFaceMeshVertex
 10
5.433012843132018
 20
7.499999999999999
 30
-0.0000000000000735
 70
   192
  0
VERTEX
  5
188
330
181
100
AcDbEntity
  8
3D-GENM
100
AcDbVertex
100
AcDbPolyFaceMeshVertex
 10
5.482963085174559
 20
7.379409313201903
 30
-0.0000000000000735
 70
   192
  0
VERTEX
  5
189
330
181
100
AcDbEntity
  8
3D-GENM
100
AcDbVertex
100
AcDbPolyFaceMeshVertex
 10
5.500000119209288
 20
7.250000238418578
 30
-0.0000000000000735
 70
   192
  0
VERTEX
  5
18A
330
181
100
AcDbEntity
  8
3D-GENM
100
AcDbVertex
100
AcDbPolyFaceMeshVertex
 10
5.500000119209288
 20
-7.250000238418578
 30
-0.0000000000000735
 70
   192
  0
VERTEX
  5
18B
330
181
100
AcDbEntity
  8
3D-GENM
100
AcDbVertex
100
AcDbPolyFaceMeshVertex
 10
5.482963085174559
 20
-7.379409313201903
 30
-0.0000000000000735
 70
   192
  0
VERTEX
  5
18C
330
181
100
AcDbEntity
  8
3D-GENM
100
AcDbVertex
100
AcDbPolyFaceMeshVertex
 10
5.433012843132018
 20
-7.499999999999999
 30
-0.0000000000000735
 70
   192
  0
VERTEX
  5
18D
330
181
100
AcDbEntity
  8
3D-GENM
100
AcDbVertex
100
AcDbPolyFaceMeshVertex
 10
5.353553295135497
 20
-7.603553295135497
 30
-0.0000000000000735
 70
   192
  0
VERTEX
  5
18E
330
181
100
AcDbEntity
  8
3D-GENM
100
AcDbVertex
100
AcDbPolyFaceMeshVertex
 10
5.249999999999999
 20
-7.683012485504149
 30
-0.0000000000000735
 70
   192
  0
VERTEX
  5
18F
330
181
100
AcDbEntity
  8
3D-GENM
100
AcDbVertex
100
AcDbPolyFaceMeshVertex
 10
5.129409670829772
 20
-7.732963085174559
 30
-0.0000000000000735
 70
   192
  0
VERTEX
  5
190
330
181
100
AcDbEntity
  8
3D-GENM
100
AcDbVertex
100
AcDbPolyFaceMeshVertex
 10
4.999999880790709
 20
-7.74999976158142
 30
-0.0000000000000735
 70
   192
  0
VERTEX
  5
191
330
181
100
AcDbEntity
  8
3D-GENM
100
AcDbVertex
100
AcDbPolyFaceMeshVertex
 10
-4.999999880790709
 20
-7.74999976158142
 30
-0.0000000000000735
 70
   192
  0
VERTEX
  5
192
330
181
100
AcDbEntity
  8
3D-GENM
100
AcDbVertex
100
AcDbPolyFaceMeshVertex
 10
-5.129409670829772
 20
-7.732963085174559
 30
-0.0000000000000735
 70
   192
  0
VERTEX
  5
193
330
181
100
AcDbEntity
  8
3D-GENM
100
AcDbVertex
100
AcDbPolyFaceMeshVertex
 10
-5.249999999999999
 20
-7.683012485504149
 30
-0.0000000000000735
 70
   192
  0
VERTEX
  5
194
330
181
100
AcDbEntity
  8
3D-GENM
100
AcDbVertex
100
AcDbPolyFaceMeshVertex
 10
-5.353553295135497
 20
-7.603553295135497
 30
-0.0000000000000735
 70
   192
  0
VERTEX
  5
195
330
181
100
AcDbEntity
  8
3D-GENM
100
AcDbVertex
100
AcDbPolyFaceMeshVertex
 10
-5.433012843132018
 20
-7.499999999999999
 30
-0.0000000000000735
 70
   192
  0
VERTEX
  5
196
330
181
100
AcDbEntity
  8
3D-GENM
100
AcDbVertex
100
AcDbPolyFaceMeshVertex
 10
-5.482963085174559
 20
-7.379409313201903
 30
-0.0000000000000735
 70
   192
  0
VERTEX
  5
197
330
181
100
AcDbEntity
  8
3D-GENM
100
AcDbVertex
100
AcDbPolyFaceMeshVertex
 10
-5.500000119209288
 20
-7.250000238418578
 30
-0.0000000000000735
 70
   192
  0
VERTEX
  5
198
330
181
100
AcDbEntity
  8
3D-GENM
100
AcDbVertex
100
AcDbPolyFaceMeshVertex
 10
-5.500000119209288
 20
7.250000238418578
 30
-0.0000000000000735
 70
   192
  0
VERTEX
  5
199
330
181
100
AcDbEntity
  8
3D-GENM
100
AcDbVertex
100
AcDbPolyFaceMeshVertex
 10
-5.482963085174559
 20
7.379409313201903
 30
-0.0000000000000735
 70
   192
  0
VERTEX
  5
19A
330
181
100
AcDbEntity
  8
3D-GENM
100
AcDbVertex
100
AcDbPolyFaceMeshVertex
 10
-5.433012843132018
 20
7.499999999999999
 30
-0.0000000000000735
 70
   192
  0
VERTEX
  5
19B
330
181
100
AcDbEntity
  8
3D-GENM
100
AcDbVertex
100
AcDbPolyFaceMeshVertex
 10
-5.353553295135497
 20
7.603553295135497
 30
-0.0000000000000735
 70
   192
  0
VERTEX
  5
19C
330
181
100
AcDbEntity
  8
3D-GENM
100
AcDbVertex
100
AcDbPolyFaceMeshVertex
 10
-5.249999999999999
 20
7.683012485504149
 30
-0.0000000000000735
 70
   192
  0
VERTEX
  5
19D
330
181
100
AcDbEntity
  8
3D-GENM
100
AcDbVertex
100
AcDbPolyFaceMeshVertex
 10
-5.129409670829772
 20
7.732963085174559
 30
-0.0000000000000735
 70
   192
  0
VERTEX
  5
19E
330
181
100
AcDbEntity
  8
3D-GENM
100
AcDbVertex
100
AcDbPolyFaceMeshVertex
 10
-3.937499999999999
 20
-6.110476255416869
 30
-0.0000000000000735
 70
   192
  0
VERTEX
  5
19F
330
181
100
AcDbEntity
  8
3D-GENM
100
AcDbVertex
100
AcDbPolyFaceMeshVertex
 10
3.937499999999999
 20
-6.110476255416869
 30
-0.0000000000000735
 70
   192
  0
VERTEX
  5
1A0
330
181
100
AcDbEntity
  8
3D-GENM
100
AcDbVertex
100
AcDbPolyFaceMeshVertex
 10
3.937499999999999
 20
0.8895238637924192
 30
-0.0000000000000735
 70
   192
  0
VERTEX
  5
1A1
330
181
100
AcDbEntity
  8
3D-GENM
100
AcDbVertex
100
AcDbPolyFaceMeshVertex
 10
-3.937499999999999
 20
0.8895238637924192
 30
-0.0000000000000735
 70
   192
  0
VERTEX
  5
1A2
330
181
100
AcDbEntity
  8
3D-GENM
100
AcDbFaceRecord
 10
0.0
 20
0.0
 30
0.0
 70
   128
 71
     3
 72
     4
 73
     5
 74
    -6
  0
VERTEX
  5
1A3
330
181
100
AcDbEntity
  8
3D-GENM
100
AcDbFaceRecord
 10
0.0
 20
0.0
 30
0.0
 70
   128
 71
     2
 72
    -3
 73
     6
 74
    -7
  0
VERTEX
  5
1A4
330
181
100
AcDbEntity
  8
3D-GENM
100
AcDbFaceRecord
 10
0.0
 20
0.0
 30
0.0
 70
   128
 71
    -2
 72
     7
 73
    -8
 74
   -31
  0
VERTEX
  5
1A5
330
181
100
AcDbEntity
  8
3D-GENM
100
AcDbFaceRecord
 10
0.0
 20
0.0
 30
0.0
 70
   128
 71
     8
 72
    -9
 73
   -31
  0
VERTEX
  5
1A6
330
181
100
AcDbEntity
  8
3D-GENM
100
AcDbFaceRecord
 10
0.0
 20
0.0
 30
0.0
 70
   128
 71
    -2
 72
    31
 73
   -32
 74
     1
  0
VERTEX
  5
1A7
330
181
100
AcDbEntity
  8
3D-GENM
100
AcDbFaceRecord
 10
0.0
 20
0.0
 30
0.0
 70
   128
 71
   -28
 72
    25
 73
    26
 74
    27
  0
VERTEX
  5
1A8
330
181
100
AcDbEntity
  8
3D-GENM
100
AcDbFaceRecord
 10
0.0
 20
0.0
 30
0.0
 70
   128
 71
   -25
 72
    28
 73
    -1
 74
    24
  0
VERTEX
  5
1A9
330
181
100
AcDbEntity
  8
3D-GENM
100
AcDbFaceRecord
 10
0.0
 20
0.0
 30
0.0
 70
   128
 71
    23
 72
   -24
 73
    -1
 74
   -32
  0
VERTEX
  5
1AA
330
181
100
AcDbEntity
  8
3D-GENM
100
AcDbFaceRecord
 10
0.0
 20
0.0
 30
0.0
 70
   128
 71
    22
 72
   -23
 73
    32
 74
   -29
  0
VERTEX
  5
1AB
330
181
100
AcDbEntity
  8
3D-GENM
100
AcDbFaceRecord
 10
0.0
 20
0.0
 30
0.0
 70
   128
 71
   -15
 72
     9
 73
    10
 74
   -11
  0
VERTEX
  5
1AC
330
181
100
AcDbEntity
  8
3D-GENM
100
AcDbFaceRecord
 10
0.0
 20
0.0
 30
0.0
 70
   128
 71
    -9
 72
   -15
 73
    30
 74
   -31
  0
VERTEX
  5
1AD
330
181
100
AcDbEntity
  8
3D-GENM
100
AcDbFaceRecord
 10
0.0
 20
0.0
 30
0.0
 70
   128
 71
    12
 72
    13
 73
   -14
  0
VERTEX
  5
1AE
330
181
100
AcDbEntity
  8
3D-GENM
100
AcDbFaceRecord
 10
0.0
 20
0.0
 30
0.0
 70
   128
 71
    14
 72
   -15
 73
    11
 74
   -12
  0
VERTEX
  5
1AF
330
181
100
AcDbEntity
  8
3D-GENM
100
AcDbFaceRecord
 10
0.0
 20
0.0
 30
0.0
 70
   128
 71
    29
 72
   -30
 73
    15
 74
   -16
  0
VERTEX
  5
1B0
330
181
100
AcDbEntity
  8
3D-GENM
100
AcDbFaceRecord
 10
0.0
 20
0.0
 30
0.0
 70
   128
 71
   -16
 72
    21
 73
   -22
 74
   -29
  0
VERTEX
  5
1B1
330
181
100
AcDbEntity
  8
3D-GENM
100
AcDbFaceRecord
 10
0.0
 20
0.0
 30
0.0
 70
   128
 71
    20
 72
   -21
 73
    16
 74
   -17
  0
VERTEX
  5
1B2
330
181
100
AcDbEntity
  8
3D-GENM
100
AcDbFaceRecord
 10
0.0
 20
0.0
 30
0.0
 70
   128
 71
    19
 72
   -20
 73
    17
 74
    18
  0
SEQEND
  5
1B3
330
181
100
AcDbEntity
  8
3D-GENM
  0
POLYLINE
  5
1B4
330
7F
100
AcDbEntity
  8
3D-GENM
100
AcDbPolyFaceMesh
 66
     1
 10
0.0
 20
0.0
 30
0.0
 70
    64
 71
    14
 72
     6
1001
REVIT
1002
{
1070
     4
1000
6208
1002
}
  0
VERTEX
  5
1B5
330
1B4
100
AcDbEntity
  8
3D-GENM
100
AcDbVertex
100
AcDbPolyFaceMeshVertex
 10
-5.500000119209288
 20
7.250000238418578
 30
2.000000059604644
 70
   192
  0
VERTEX
  5
1B6
330
1B4
100
AcDbEntity
  8
3D-GENM
100
AcDbVertex
100
AcDbPolyFaceMeshVertex
 10
-5.482963085174559
 20
7.379409313201903
 30
2.000000059604644
 70
   192
  0
VERTEX
  5
1B7
330
1B4
100
AcDbEntity
  8
3D-GENM
100
AcDbVertex
100
AcDbPolyFaceMeshVertex
 10
-5.433012843132018
 20
7.499999999999999
 30
2.000000059604644
 70
   192
  0
VERTEX
  5
1B8
330
1B4
100
AcDbEntity
  8
3D-GENM
100
AcDbVertex
100
AcDbPolyFaceMeshVertex
 10
-5.353553295135497
 20
7.603553295135497
 30
2.000000059604644
 70
   192
  0
VERTEX
  5
1B9
330
1B4
100
AcDbEntity
  8
3D-GENM
100
AcDbVertex
100
AcDbPolyFaceMeshVertex
 10
-5.249999999999999
 20
7.683012485504149
 30
2.000000059604644
 70
   192
  0
VERTEX
  5
1BA
330
1B4
100
AcDbEntity
  8
3D-GENM
100
AcDbVertex
100
AcDbPolyFaceMeshVertex
 10
-5.129409670829772
 20
7.732963085174559
 30
2.000000059604644
 70
   192
  0
VERTEX
  5
1BB
330
1B4
100
AcDbEntity
  8
3D-GENM
100
AcDbVertex
100
AcDbPolyFaceMeshVertex
 10
-4.999999880790709
 20
7.74999976158142
 30
2.000000059604644
 70
   192
  0
VERTEX
  5
1BC
330
1B4
100
AcDbEntity
  8
3D-GENM
100
AcDbVertex
100
AcDbPolyFaceMeshVertex
 10
-4.999999880790709
 20
7.74999976158142
 30
-0.0000000000000735
 70
   192
  0
VERTEX
  5
1BD
330
1B4
100
AcDbEntity
  8
3D-GENM
100
AcDbVertex
100
AcDbPolyFaceMeshVertex
 10
-5.129409670829772
 20
7.732963085174559
 30
-0.0000000000000735
 70
   192
  0
VERTEX
  5
1BE
330
1B4
100
AcDbEntity
  8
3D-GENM
100
AcDbVertex
100
AcDbPolyFaceMeshVertex
 10
-5.249999999999999
 20
7.683012485504149
 30
-0.0000000000000735
 70
   192
  0
VERTEX
  5
1BF
330
1B4
100
AcDbEntity
  8
3D-GENM
100
AcDbVertex
100
AcDbPolyFaceMeshVertex
 10
-5.353553295135497
 20
7.603553295135497
 30
-0.0000000000000735
 70
   192
  0
VERTEX
  5
1C0
330
1B4
100
AcDbEntity
  8
3D-GENM
100
AcDbVertex
100
AcDbPolyFaceMeshVertex
 10
-5.433012843132018
 20
7.499999999999999
 30
-0.0000000000000735
 70
   192
  0
VERTEX
  5
1C1
330
1B4
100
AcDbEntity
  8
3D-GENM
100
AcDbVertex
100
AcDbPolyFaceMeshVertex
 10
-5.482963085174559
 20
7.379409313201903
 30
-0.0000000000000735
 70
   192
  0
VERTEX
  5
1C2
330
1B4
100
AcDbEntity
  8
3D-GENM
100
AcDbVertex
100
AcDbPolyFaceMeshVertex
 10
-5.500000119209288
 20
7.250000238418578
 30
-0.0000000000000736
 70
   192
  0
VERTEX
  5
1C3
330
1B4
100
AcDbEntity
  8
3D-GENM
100
AcDbFaceRecord
 10
0.0
 20
0.0
 30
0.0
 70
   128
 71
     8
 72
    -9
 73
     6
 74
     7
  0
VERTEX
  5
1C4
330
1B4
100
AcDbEntity
  8
3D-GENM
100
AcDbFaceRecord
 10
0.0
 20
0.0
 30
0.0
 70
   128
 71
     9
 72
   -10
 73
     5
 74
    -6
  0
VERTEX
  5
1C5
330
1B4
100
AcDbEntity
  8
3D-GENM
100
AcDbFaceRecord
 10
0.0
 20
0.0
 30
0.0
 70
   128
 71
     4
 72
    -5
 73
    10
 74
   -11
  0
VERTEX
  5
1C6
330
1B4
100
AcDbEntity
  8
3D-GENM
100
AcDbFaceRecord
 10
0.0
 20
0.0
 30
0.0
 70
   128
 71
    11
 72
   -12
 73
     3
 74
    -4
  0
VERTEX
  5
1C7
330
1B4
100
AcDbEntity
  8
3D-GENM
100
AcDbFaceRecord
 10
0.0
 20
0.0
 30
0.0
 70
   128
 71
    12
 72
   -13
 73
     2
 74
    -3
  0
VERTEX
  5
1C8
330
1B4
100
AcDbEntity
  8
3D-GENM
100
AcDbFaceRecord
 10
0.0
 20
0.0
 30
0.0
 70
   128
 71
     1
 72
    -2
 73
    13
 74
    14
  0
SEQEND
  5
1C9
330
1B4
100
AcDbEntity
  8
3D-GENM
  0
POLYLINE
  5
1CA
330
7F
100
AcDbEntity
  8
3D-GENM
100
AcDbPolyFaceMesh
 66
     1
 10
0.0
 20
0.0
 30
0.0
 70
    64
 71
     4
 72
     1
1001
REVIT
1002
{
1070
     4
1000
6208
1002
}
  0
VERTEX
  5
1CB
330
1CA
100
AcDbEntity
  8
3D-GENM
100
AcDbVertex
100
AcDbPolyFaceMeshVertex
 10
-5.500000119209288
 20
-7.250000238418578
 30
2.000000059604644
 70
   192
  0
VERTEX
  5
1CC
330
1CA
100
AcDbEntity
  8
3D-GENM
100
AcDbVertex
100
AcDbPolyFaceMeshVertex
 10
-5.500000119209288
 20
7.250000238418578
 30
2.000000059604644
 70
   192
  0
VERTEX
  5
1CD
330
1CA
100
AcDbEntity
  8
3D-GENM
100
AcDbVertex
100
AcDbPolyFaceMeshVertex
 10
-5.500000119209288
 20
7.250000238418578
 30
-0.0000000000000736
 70
   192
  0
VERTEX
  5
1CE
330
1CA
100
AcDbEntity
  8
3D-GENM
100
AcDbVertex
100
AcDbPolyFaceMeshVertex
 10
-5.500000119209288
 20
-7.250000238418578
 30
-0.0000000000000736
 70
   192
  0
VERTEX
  5
1CF
330
1CA
100
AcDbEntity
  8
3D-GENM
100
AcDbFaceRecord
 10
0.0
 20
0.0
 30
0.0
 70
   128
 71
     1
 72
     2
 73
     3
 74
     4
  0
SEQEND
  5
1D0
330
1CA
100
AcDbEntity
  8
3D-GENM
  0
POLYLINE
  5
1D1
330
7F
100
AcDbEntity
  8
3D-GENM
100
AcDbPolyFaceMesh
 66
     1
 10
0.0
 20
0.0
 30
0.0
 70
    64
 71
    14
 72
     6
1001
REVIT
1002
{
1070
     4
1000
6208
1002
}
  0
VERTEX
  5
1D2
330
1D1
100
AcDbEntity
  8
3D-GENM
100
AcDbVertex
100
AcDbPolyFaceMeshVertex
 10
-4.999999880790709
 20
-7.74999976158142
 30
2.000000059604644
 70
   192
  0
VERTEX
  5
1D3
330
1D1
100
AcDbEntity
  8
3D-GENM
100
AcDbVertex
100
AcDbPolyFaceMeshVertex
 10
-5.129409670829772
 20
-7.732963085174559
 30
2.000000059604644
 70
   192
  0
VERTEX
  5
1D4
330
1D1
100
AcDbEntity
  8
3D-GENM
100
AcDbVertex
100
AcDbPolyFaceMeshVertex
 10
-5.249999999999999
 20
-7.683012485504149
 30
2.000000059604644
 70
   192
  0
VERTEX
  5
1D5
330
1D1
100
AcDbEntity
  8
3D-GENM
100
AcDbVertex
100
AcDbPolyFaceMeshVertex
 10
-5.353553295135497
 20
-7.603553295135497
 30
2.000000059604644
 70
   192
  0
VERTEX
  5
1D6
330
1D1
100
AcDbEntity
  8
3D-GENM
100
AcDbVertex
100
AcDbPolyFaceMeshVertex
 10
-5.433012843132018
 20
-7.499999999999999
 30
2.000000059604644
 70
   192
  0
VERTEX
  5
1D7
330
1D1
100
AcDbEntity
  8
3D-GENM
100
AcDbVertex
100
AcDbPolyFaceMeshVertex
 10
-5.482963085174559
 20
-7.379409313201903
 30
2.000000059604644
 70
   192
  0
VERTEX
  5
1D8
330
1D1
100
AcDbEntity
  8
3D-GENM
100
AcDbVertex
100
AcDbPolyFaceMeshVertex
 10
-5.500000119209288
 20
-7.250000238418578
 30
2.000000059604644
 70
   192
  0
VERTEX
  5
1D9
330
1D1
100
AcDbEntity
  8
3D-GENM
100
AcDbVertex
100
AcDbPolyFaceMeshVertex
 10
-5.500000119209288
 20
-7.250000238418578
 30
-0.0000000000000735
 70
   192
  0
VERTEX
  5
1DA
330
1D1
100
AcDbEntity
  8
3D-GENM
100
AcDbVertex
100
AcDbPolyFaceMeshVertex
 10
-5.482963085174559
 20
-7.379409313201903
 30
-0.0000000000000735
 70
   192
  0
VERTEX
  5
1DB
330
1D1
100
AcDbEntity
  8
3D-GENM
100
AcDbVertex
100
AcDbPolyFaceMeshVertex
 10
-5.433012843132018
 20
-7.499999999999999
 30
-0.0000000000000735
 70
   192
  0
VERTEX
  5
1DC
330
1D1
100
AcDbEntity
  8
3D-GENM
100
AcDbVertex
100
AcDbPolyFaceMeshVertex
 10
-5.353553295135497
 20
-7.603553295135497
 30
-0.0000000000000735
 70
   192
  0
VERTEX
  5
1DD
330
1D1
100
AcDbEntity
  8
3D-GENM
100
AcDbVertex
100
AcDbPolyFaceMeshVertex
 10
-5.249999999999999
 20
-7.683012485504149
 30
-0.0000000000000735
 70
   192
  0
VERTEX
  5
1DE
330
1D1
100
AcDbEntity
  8
3D-GENM
100
AcDbVertex
100
AcDbPolyFaceMeshVertex
 10
-5.129409670829772
 20
-7.732963085174559
 30
-0.0000000000000735
 70
   192
  0
VERTEX
  5
1DF
330
1D1
100
AcDbEntity
  8
3D-GENM
100
AcDbVertex
100
AcDbPolyFaceMeshVertex
 10
-4.999999880790709
 20
-7.74999976158142
 30
-0.0000000000000736
 70
   192
  0
VERTEX
  5
1E0
330
1D1
100
AcDbEntity
  8
3D-GENM
100
AcDbFaceRecord
 10
0.0
 20
0.0
 30
0.0
 70
   128
 71
     8
 72
    -9
 73
     6
 74
     7
  0
VERTEX
  5
1E1
330
1D1
100
AcDbEntity
  8
3D-GENM
100
AcDbFaceRecord
 10
0.0
 20
0.0
 30
0.0
 70
   128
 71
     9
 72
   -10
 73
     5
 74
    -6
  0
VERTEX
  5
1E2
330
1D1
100
AcDbEntity
  8
3D-GENM
100
AcDbFaceRecord
 10
0.0
 20
0.0
 30
0.0
 70
   128
 71
     4
 72
    -5
 73
    10
 74
   -11
  0
VERTEX
  5
1E3
330
1D1
100
AcDbEntity
  8
3D-GENM
100
AcDbFaceRecord
 10
0.0
 20
0.0
 30
0.0
 70
   128
 71
    11
 72
   -12
 73
     3
 74
    -4
  0
VERTEX
  5
1E4
330
1D1
100
AcDbEntity
  8
3D-GENM
100
AcDbFaceRecord
 10
0.0
 20
0.0
 30
0.0
 70
   128
 71
    12
 72
   -13
 73
     2
 74
    -3
  0
VERTEX
  5
1E5
330
1D1
100
AcDbEntity
  8
3D-GENM
100
AcDbFaceRecord
 10
0.0
 20
0.0
 30
0.0
 70
   128
 71
     1
 72
    -2
 73
    13
 74
    14
  0
SEQEND
  5
1E6
330
1D1
100
AcDbEntity
  8
3D-GENM
  0
POLYLINE
  5
1E7
330
7F
100
AcDbEntity
  8
3D-GENM
100
AcDbPolyFaceMesh
 66
     1
 10
0.0
 20
0.0
 30
0.0
 70
    64
 71
     4
 72
     1
1001
REVIT
1002
{
1070
     4
1000
6208
1002
}
  0
VERTEX
  5
1E8
330
1E7
100
AcDbEntity
  8
3D-GENM
100
AcDbVertex
100
AcDbPolyFaceMeshVertex
 10
4.999999880790709
 20
-7.74999976158142
 30
2.000000059604644
 70
   192
  0
VERTEX
  5
1E9
330
1E7
100
AcDbEntity
  8
3D-GENM
100
AcDbVertex
100
AcDbPolyFaceMeshVertex
 10
-4.999999880790709
 20
-7.74999976158142
 30
2.000000059604644
 70
   192
  0
VERTEX
  5
1EA
330
1E7
100
AcDbEntity
  8
3D-GENM
100
AcDbVertex
100
AcDbPolyFaceMeshVertex
 10
-4.999999880790709
 20
-7.74999976158142
 30
-0.0000000000000736
 70
   192
  0
VERTEX
  5
1EB
330
1E7
100
AcDbEntity
  8
3D-GENM
100
AcDbVertex
100
AcDbPolyFaceMeshVertex
 10
4.999999880790709
 20
-7.74999976158142
 30
-0.0000000000000736
 70
   192
  0
VERTEX
  5
1EC
330
1E7
100
AcDbEntity
  8
3D-GENM
100
AcDbFaceRecord
 10
0.0
 20
0.0
 30
0.0
 70
   128
 71
     4
 72
     1
 73
     2
 74
     3
  0
SEQEND
  5
1ED
330
1E7
100
AcDbEntity
  8
3D-GENM
  0
POLYLINE
  5
1EE
330
7F
100
AcDbEntity
  8
3D-GENM
100
AcDbPolyFaceMesh
 66
     1
 10
0.0
 20
0.0
 30
0.0
 70
    64
 71
    14
 72
     6
1001
REVIT
1002
{
1070
     4
1000
6208
1002
}
  0
VERTEX
  5
1EF
330
1EE
100
AcDbEntity
  8
3D-GENM
100
AcDbVertex
100
AcDbPolyFaceMeshVertex
 10
5.500000119209288
 20
-7.250000238418578
 30
2.000000059604644
 70
   192
  0
VERTEX
  5
1F0
330
1EE
100
AcDbEntity
  8
3D-GENM
100
AcDbVertex
100
AcDbPolyFaceMeshVertex
 10
5.482963085174559
 20
-7.379409313201903
 30
2.000000059604644
 70
   192
  0
VERTEX
  5
1F1
330
1EE
100
AcDbEntity
  8
3D-GENM
100
AcDbVertex
100
AcDbPolyFaceMeshVertex
 10
5.433012843132018
 20
-7.499999999999999
 30
2.000000059604644
 70
   192
  0
VERTEX
  5
1F2
330
1EE
100
AcDbEntity
  8
3D-GENM
100
AcDbVertex
100
AcDbPolyFaceMeshVertex
 10
5.353553295135497
 20
-7.603553295135497
 30
2.000000059604644
 70
   192
  0
VERTEX
  5
1F3
330
1EE
100
AcDbEntity
  8
3D-GENM
100
AcDbVertex
100
AcDbPolyFaceMeshVertex
 10
5.249999999999999
 20
-7.683012485504149
 30
2.000000059604644
 70
   192
  0
VERTEX
  5
1F4
330
1EE
100
AcDbEntity
  8
3D-GENM
100
AcDbVertex
100
AcDbPolyFaceMeshVertex
 10
5.129409670829772
 20
-7.732963085174559
 30
2.000000059604644
 70
   192
  0
VERTEX
  5
1F5
330
1EE
100
AcDbEntity
  8
3D-GENM
100
AcDbVertex
100
AcDbPolyFaceMeshVertex
 10
4.999999880790709
 20
-7.74999976158142
 30
2.000000059604644
 70
   192
  0
VERTEX
  5
1F6
330
1EE
100
AcDbEntity
  8
3D-GENM
100
AcDbVertex
100
AcDbPolyFaceMeshVertex
 10
4.999999880790709
 20
-7.74999976158142
 30
-0.0000000000000735
 70
   192
  0
VERTEX
  5
1F7
330
1EE
100
AcDbEntity
  8
3D-GENM
100
AcDbVertex
100
AcDbPolyFaceMeshVertex
 10
5.129409670829772
 20
-7.732963085174559
 30
-0.0000000000000735
 70
   192
  0
VERTEX
  5
1F8
330
1EE
100
AcDbEntity
  8
3D-GENM
100
AcDbVertex
100
AcDbPolyFaceMeshVertex
 10
5.249999999999999
 20
-7.683012485504149
 30
-0.0000000000000735
 70
   192
  0
VERTEX
  5
1F9
330
1EE
100
AcDbEntity
  8
3D-GENM
100
AcDbVertex
100
AcDbPolyFaceMeshVertex
 10
5.353553295135497
 20
-7.603553295135497
 30
-0.0000000000000735
 70
   192
  0
VERTEX
  5
1FA
330
1EE
100
AcDbEntity
  8
3D-GENM
100
AcDbVertex
100
AcDbPolyFaceMeshVertex
 10
5.433012843132018
 20
-7.499999999999999
 30
-0.0000000000000735
 70
   192
  0
VERTEX
  5
1FB
330
1EE
100
AcDbEntity
  8
3D-GENM
100
AcDbVertex
100
AcDbPolyFaceMeshVertex
 10
5.482963085174559
 20
-7.379409313201903
 30
-0.0000000000000735
 70
   192
  0
VERTEX
  5
1FC
330
1EE
100
AcDbEntity
  8
3D-GENM
100
AcDbVertex
100
AcDbPolyFaceMeshVertex
 10
5.500000119209288
 20
-7.250000238418578
 30
-0.0000000000000736
 70
   192
  0
VERTEX
  5
1FD
330
1EE
100
AcDbEntity
  8
3D-GENM
100
AcDbFaceRecord
 10
0.0
 20
0.0
 30
0.0
 70
   128
 71
    -6
 72
     9
 73
   -10
 74
     5
  0
VERTEX
  5
1FE
330
1EE
100
AcDbEntity
  8
3D-GENM
100
AcDbFaceRecord
 10
0.0
 20
0.0
 30
0.0
 70
   128
 71
    -5
 72
    10
 73
   -11
 74
     4
  0
VERTEX
  5
1FF
330
1EE
100
AcDbEntity
  8
3D-GENM
100
AcDbFaceRecord
 10
0.0
 20
0.0
 30
0.0
 70
   128
 71
     7
 72
     8
 73
    -9
 74
     6
  0
VERTEX
  5
200
330
1EE
100
AcDbEntity
  8
3D-GENM
100
AcDbFaceRecord
 10
0.0
 20
0.0
 30
0.0
 70
   128
 71
    -3
 72
    12
 73
   -13
 74
     2
  0
VERTEX
  5
201
330
1EE
100
AcDbEntity
  8
3D-GENM
100
AcDbFaceRecord
 10
0.0
 20
0.0
 30
0.0
 70
   128
 71
    -2
 72
    13
 73
    14
 74
     1
  0
VERTEX
  5
202
330
1EE
100
AcDbEntity
  8
3D-GENM
100
AcDbFaceRecord
 10
0.0
 20
0.0
 30
0.0
 70
   128
 71
   -12
 72
     3
 73
    -4
 74
    11
  0
SEQEND
  5
203
330
1EE
100
AcDbEntity
  8
3D-GENM
  0
POLYLINE
  5
204
330
7F
100
AcDbEntity
  8
3D-GENM
100
AcDbPolyFaceMesh
 66
     1
 10
0.0
 20
0.0
 30
0.0
 70
    64
 71
     4
 72
     1
1001
REVIT
1002
{
1070
     4
1000
6208
1002
}
  0
VERTEX
  5
205
330
204
100
AcDbEntity
  8
3D-GENM
100
AcDbVertex
100
AcDbPolyFaceMeshVertex
 10
5.500000119209288
 20
7.250000238418578
 30
2.000000059604644
 70
   192
  0
VERTEX
  5
206
330
204
100
AcDbEntity
  8
3D-GENM
100
AcDbVertex
100
AcDbPolyFaceMeshVertex
 10
5.500000119209288
 20
-7.250000238418578
 30
2.000000059604644
 70
   192
  0
VERTEX
  5
207
330
204
100
AcDbEntity
  8
3D-GENM
100
AcDbVertex
100
AcDbPolyFaceMeshVertex
 10
5.500000119209288
 20
-7.250000238418578
 30
-0.0000000000000736
 70
   192
  0
VERTEX
  5
208
330
204
100
AcDbEntity
  8
3D-GENM
100
AcDbVertex
100
AcDbPolyFaceMeshVertex
 10
5.500000119209288
 20
7.250000238418578
 30
-0.0000000000000736
 70
   192
  0
VERTEX
  5
209
330
204
100
AcDbEntity
  8
3D-GENM
100
AcDbFaceRecord
 10
0.0
 20
0.0
 30
0.0
 70
   128
 71
     1
 72
     2
 73
     3
 74
     4
  0
SEQEND
  5
20A
330
204
100
AcDbEntity
  8
3D-GENM
  0
POLYLINE
  5
20B
330
7F
100
AcDbEntity
  8
3D-GENM
100
AcDbPolyFaceMesh
 66
     1
 10
0.0
 20
0.0
 30
0.0
 70
    64
 71
    14
 72
     6
1001
REVIT
1002
{
1070
     4
1000
6208
1002
}
  0
VERTEX
  5
20C
330
20B
100
AcDbEntity
  8
3D-GENM
100
AcDbVertex
100
AcDbPolyFaceMeshVertex
 10
4.999999880790709
 20
7.74999976158142
 30
2.000000059604644
 70
   192
  0
VERTEX
  5
20D
330
20B
100
AcDbEntity
  8
3D-GENM
100
AcDbVertex
100
AcDbPolyFaceMeshVertex
 10
5.129409670829772
 20
7.732963085174559
 30
2.000000059604644
 70
   192
  0
VERTEX
  5
20E
330
20B
100
AcDbEntity
  8
3D-GENM
100
AcDbVertex
100
AcDbPolyFaceMeshVertex
 10
5.249999999999999
 20
7.683012485504149
 30
2.000000059604644
 70
   192
  0
VERTEX
  5
20F
330
20B
100
AcDbEntity
  8
3D-GENM
100
AcDbVertex
100
AcDbPolyFaceMeshVertex
 10
5.353553295135497
 20
7.603553295135497
 30
2.000000059604644
 70
   192
  0
VERTEX
  5
210
330
20B
100
AcDbEntity
  8
3D-GENM
100
AcDbVertex
100
AcDbPolyFaceMeshVertex
 10
5.433012843132018
 20
7.499999999999999
 30
2.000000059604644
 70
   192
  0
VERTEX
  5
211
330
20B
100
AcDbEntity
  8
3D-GENM
100
AcDbVertex
100
AcDbPolyFaceMeshVertex
 10
5.482963085174559
 20
7.379409313201903
 30
2.000000059604644
 70
   192
  0
VERTEX
  5
212
330
20B
100
AcDbEntity
  8
3D-GENM
100
AcDbVertex
100
AcDbPolyFaceMeshVertex
 10
5.500000119209288
 20
7.250000238418578
 30
2.000000059604644
 70
   192
  0
VERTEX
  5
213
330
20B
100
AcDbEntity
  8
3D-GENM
100
AcDbVertex
100
AcDbPolyFaceMeshVertex
 10
5.500000119209288
 20
7.250000238418578
 30
-0.0000000000000735
 70
   192
  0
VERTEX
  5
214
330
20B
100
AcDbEntity
  8
3D-GENM
100
AcDbVertex
100
AcDbPolyFaceMeshVertex
 10
5.482963085174559
 20
7.379409313201903
 30
-0.0000000000000735
 70
   192
  0
VERTEX
  5
215
330
20B
100
AcDbEntity
  8
3D-GENM
100
AcDbVertex
100
AcDbPolyFaceMeshVertex
 10
5.433012843132018
 20
7.499999999999999
 30
-0.0000000000000735
 70
   192
  0
VERTEX
  5
216
330
20B
100
AcDbEntity
  8
3D-GENM
100
AcDbVertex
100
AcDbPolyFaceMeshVertex
 10
5.353553295135497
 20
7.603553295135497
 30
-0.0000000000000735
 70
   192
  0
VERTEX
  5
217
330
20B
100
AcDbEntity
  8
3D-GENM
100
AcDbVertex
100
AcDbPolyFaceMeshVertex
 10
5.249999999999999
 20
7.683012485504149
 30
-0.0000000000000735
 70
   192
  0
VERTEX
  5
218
330
20B
100
AcDbEntity
  8
3D-GENM
100
AcDbVertex
100
AcDbPolyFaceMeshVertex
 10
5.129409670829772
 20
7.732963085174559
 30
-0.0000000000000735
 70
   192
  0
VERTEX
  5
219
330
20B
100
AcDbEntity
  8
3D-GENM
100
AcDbVertex
100
AcDbPolyFaceMeshVertex
 10
4.999999880790709
 20
7.74999976158142
 30
-0.0000000000000736
 70
   192
  0
VERTEX
  5
21A
330
20B
100
AcDbEntity
  8
3D-GENM
100
AcDbFaceRecord
 10
0.0
 20
0.0
 30
0.0
 70
   128
 71
     8
 72
    -9
 73
     6
 74
     7
  0
VERTEX
  5
21B
330
20B
100
AcDbEntity
  8
3D-GENM
100
AcDbFaceRecord
 10
0.0
 20
0.0
 30
0.0
 70
   128
 71
     9
 72
   -10
 73
     5
 74
    -6
  0
VERTEX
  5
21C
330
20B
100
AcDbEntity
  8
3D-GENM
100
AcDbFaceRecord
 10
0.0
 20
0.0
 30
0.0
 70
   128
 71
     4
 72
    -5
 73
    10
 74
   -11
  0
VERTEX
  5
21D
330
20B
100
AcDbEntity
  8
3D-GENM
100
AcDbFaceRecord
 10
0.0
 20
0.0
 30
0.0
 70
   128
 71
    11
 72
   -12
 73
     3
 74
    -4
  0
VERTEX
  5
21E
330
20B
100
AcDbEntity
  8
3D-GENM
100
AcDbFaceRecord
 10
0.0
 20
0.0
 30
0.0
 70
   128
 71
    12
 72
   -13
 73
     2
 74
    -3
  0
VERTEX
  5
21F
330
20B
100
AcDbEntity
  8
3D-GENM
100
AcDbFaceRecord
 10
0.0
 20
0.0
 30
0.0
 70
   128
 71
     1
 72
    -2
 73
    13
 74
    14
  0
SEQEND
  5
220
330
20B
100
AcDbEntity
  8
3D-GENM
  0
POLYLINE
  5
221
330
7F
100
AcDbEntity
  8
3D-GENM
100
AcDbPolyFaceMesh
 66
     1
 10
0.0
 20
0.0
 30
0.0
 70
    64
 71
     4
 72
     1
1001
REVIT
1002
{
1070
     4
1000
6208
1002
}
  0
VERTEX
  5
222
330
221
100
AcDbEntity
  8
3D-GENM
100
AcDbVertex
100
AcDbPolyFaceMeshVertex
 10
-4.999999880790709
 20
7.74999976158142
 30
2.000000059604644
 70
   192
  0
VERTEX
  5
223
330
221
100
AcDbEntity
  8
3D-GENM
100
AcDbVertex
100
AcDbPolyFaceMeshVertex
 10
4.999999880790709
 20
7.74999976158142
 30
2.000000059604644
 70
   192
  0
VERTEX
  5
224
330
221
100
AcDbEntity
  8
3D-GENM
100
AcDbVertex
100
AcDbPolyFaceMeshVertex
 10
4.999999880790709
 20
7.74999976158142
 30
-0.0000000000000736
 70
   192
  0
VERTEX
  5
225
330
221
100
AcDbEntity
  8
3D-GENM
100
AcDbVertex
100
AcDbPolyFaceMeshVertex
 10
-4.999999880790709
 20
7.74999976158142
 30
-0.0000000000000736
 70
   192
  0
VERTEX
  5
226
330
221
100
AcDbEntity
  8
3D-GENM
100
AcDbFaceRecord
 10
0.0
 20
0.0
 30
0.0
 70
   128
 71
     4
 72
     1
 73
     2
 74
     3
  0
SEQEND
  5
227
330
221
100
AcDbEntity
  8
3D-GENM
  0
POLYLINE
  5
228
330
7F
100
AcDbEntity
  8
3D-GENM
100
AcDbPolyFaceMesh
 66
     1
 10
0.0
 20
0.0
 30
0.0
 70
    64
 71
     4
 72
     1
1001
REVIT
1002
{
1070
     4
1000
6208
1002
}
  0
VERTEX
  5
229
330
228
100
AcDbEntity
  8
3D-GENM
100
AcDbVertex
100
AcDbPolyFaceMeshVertex
 10
-3.937499999999999
 20
0.8895238637924192
 30
2.000000059604644
 70
   192
  0
VERTEX
  5
22A
330
228
100
AcDbEntity
  8
3D-GENM
100
AcDbVertex
100
AcDbPolyFaceMeshVertex
 10
-3.937499999999999
 20
-6.110476255416869
 30
2.000000059604644
 70
   192
  0
VERTEX
  5
22B
330
228
100
AcDbEntity
  8
3D-GENM
100
AcDbVertex
100
AcDbPolyFaceMeshVertex
 10
-3.937499999999999
 20
-6.110476255416869
 30
-0.0000000000000736
 70
   192
  0
VERTEX
  5
22C
330
228
100
AcDbEntity
  8
3D-GENM
100
AcDbVertex
100
AcDbPolyFaceMeshVertex
 10
-3.937499999999999
 20
0.8895238637924192
 30
-0.0000000000000736
 70
   192
  0
VERTEX
  5
22D
330
228
100
AcDbEntity
  8
3D-GENM
100
AcDbFaceRecord
 10
0.0
 20
0.0
 30
0.0
 70
   128
 71
     1
 72
     2
 73
     3
 74
     4
  0
SEQEND
  5
22E
330
228
100
AcDbEntity
  8
3D-GENM
  0
POLYLINE
  5
22F
330
7F
100
AcDbEntity
  8
3D-GENM
100
AcDbPolyFaceMesh
 66
     1
 10
0.0
 20
0.0
 30
0.0
 70
    64
 71
     4
 72
     1
1001
REVIT
1002
{
1070
     4
1000
6208
1002
}
  0
VERTEX
  5
230
330
22F
100
AcDbEntity
  8
3D-GENM
100
AcDbVertex
100
AcDbPolyFaceMeshVertex
 10
3.937499999999999
 20
0.8895238637924192
 30
2.000000059604644
 70
   192
  0
VERTEX
  5
231
330
22F
100
AcDbEntity
  8
3D-GENM
100
AcDbVertex
100
AcDbPolyFaceMeshVertex
 10
-3.937499999999999
 20
0.8895238637924192
 30
2.000000059604644
 70
   192
  0
VERTEX
  5
232
330
22F
100
AcDbEntity
  8
3D-GENM
100
AcDbVertex
100
AcDbPolyFaceMeshVertex
 10
-3.937499999999999
 20
0.8895238637924192
 30
-0.0000000000000736
 70
   192
  0
VERTEX
  5
233
330
22F
100
AcDbEntity
  8
3D-GENM
100
AcDbVertex
100
AcDbPolyFaceMeshVertex
 10
3.937499999999999
 20
0.8895238637924192
 30
-0.0000000000000736
 70
   192
  0
VERTEX
  5
234
330
22F
100
AcDbEntity
  8
3D-GENM
100
AcDbFaceRecord
 10
0.0
 20
0.0
 30
0.0
 70
   128
 71
     1
 72
     2
 73
     3
 74
     4
  0
SEQEND
  5
235
330
22F
100
AcDbEntity
  8
3D-GENM
  0
POLYLINE
  5
236
330
7F
100
AcDbEntity
  8
3D-GENM
100
AcDbPolyFaceMesh
 66
     1
 10
0.0
 20
0.0
 30
0.0
 70
    64
 71
     4
 72
     1
1001
REVIT
1002
{
1070
     4
1000
6208
1002
}
  0
VERTEX
  5
237
330
236
100
AcDbEntity
  8
3D-GENM
100
AcDbVertex
100
AcDbPolyFaceMeshVertex
 10
3.937499999999999
 20
-6.110476255416869
 30
2.000000059604644
 70
   192
  0
VERTEX
  5
238
330
236
100
AcDbEntity
  8
3D-GENM
100
AcDbVertex
100
AcDbPolyFaceMeshVertex
 10
3.937499999999999
 20
0.8895238637924192
 30
2.000000059604644
 70
   192
  0
VERTEX
  5
239
330
236
100
AcDbEntity
  8
3D-GENM
100
AcDbVertex
100
AcDbPolyFaceMeshVertex
 10
3.937499999999999
 20
0.8895238637924192
 30
-0.0000000000000736
 70
   192
  0
VERTEX
  5
23A
330
236
100
AcDbEntity
  8
3D-GENM
100
AcDbVertex
100
AcDbPolyFaceMeshVertex
 10
3.937499999999999
 20
-6.110476255416869
 30
-0.0000000000000736
 70
   192
  0
VERTEX
  5
23B
330
236
100
AcDbEntity
  8
3D-GENM
100
AcDbFaceRecord
 10
0.0
 20
0.0
 30
0.0
 70
   128
 71
     1
 72
     2
 73
     3
 74
     4
  0
SEQEND
  5
23C
330
236
100
AcDbEntity
  8
3D-GENM
  0
POLYLINE
  5
23D
330
7F
100
AcDbEntity
  8
3D-GENM
100
AcDbPolyFaceMesh
 66
     1
 10
0.0
 20
0.0
 30
0.0
 70
    64
 71
     4
 72
     1
1001
REVIT
1002
{
1070
     4
1000
6208
1002
}
  0
VERTEX
  5
23E
330
23D
100
AcDbEntity
  8
3D-GENM
100
AcDbVertex
100
AcDbPolyFaceMeshVertex
 10
-3.937499999999999
 20
-6.110476255416869
 30
2.000000059604644
 70
   192
  0
VERTEX
  5
23F
330
23D
100
AcDbEntity
  8
3D-GENM
100
AcDbVertex
100
AcDbPolyFaceMeshVertex
 10
3.937499999999999
 20
-6.110476255416869
 30
2.000000059604644
 70
   192
  0
VERTEX
  5
240
330
23D
100
AcDbEntity
  8
3D-GENM
100
AcDbVertex
100
AcDbPolyFaceMeshVertex
 10
3.937499999999999
 20
-6.110476255416869
 30
-0.0000000000000736
 70
   192
  0
VERTEX
  5
241
330
23D
100
AcDbEntity
  8
3D-GENM
100
AcDbVertex
100
AcDbPolyFaceMeshVertex
 10
-3.937499999999999
 20
-6.110476255416869
 30
-0.0000000000000736
 70
   192
  0
VERTEX
  5
242
330
23D
100
AcDbEntity
  8
3D-GENM
100
AcDbFaceRecord
 10
0.0
 20
0.0
 30
0.0
 70
   128
 71
     1
 72
     2
 73
     3
 74
     4
  0
SEQEND
  5
243
330
23D
100
AcDbEntity
  8
3D-GENM
  0
POLYLINE
  5
244
330
7F
100
AcDbEntity
  8
3D-GENM
100
AcDbPolyFaceMesh
 66
     1
 10
0.0
 20
0.0
 30
0.0
 70
    64
 71
    32
 72
    18
1001
REVIT
1002
{
1070
     4
1000
6208
1002
}
  0
VERTEX
  5
245
330
244
100
AcDbEntity
  8
3D-GENM
100
AcDbVertex
100
AcDbPolyFaceMeshVertex
 10
4.999999880790709
 20
7.56249976158142
 30
-0.0000000000000736
 70
   192
  0
VERTEX
  5
246
330
244
100
AcDbEntity
  8
3D-GENM
100
AcDbVertex
100
AcDbPolyFaceMeshVertex
 10
-4.999999880790709
 20
7.56249976158142
 30
-0.0000000000000736
 70
   192
  0
VERTEX
  5
247
330
244
100
AcDbEntity
  8
3D-GENM
100
AcDbVertex
100
AcDbPolyFaceMeshVertex
 10
-5.06470477581024
 20
7.553981781005858
 30
-0.0000000000000736
 70
   192
  0
VERTEX
  5
248
330
244
100
AcDbEntity
  8
3D-GENM
100
AcDbVertex
100
AcDbPolyFaceMeshVertex
 10
-5.125000119209288
 20
7.529006481170653
 30
-0.0000000000000736
 70
   192
  0
VERTEX
  5
249
330
244
100
AcDbEntity
  8
3D-GENM
100
AcDbVertex
100
AcDbPolyFaceMeshVertex
 10
-5.176776766777037
 20
7.489276885986327
 30
-0.0000000000000736
 70
   192
  0
VERTEX
  5
24A
330
244
100
AcDbEntity
  8
3D-GENM
100
AcDbVertex
100
AcDbPolyFaceMeshVertex
 10
-5.216506361961363
 20
7.437500238418578
 30
-0.0000000000000736
 70
   192
  0
VERTEX
  5
24B
330
244
100
AcDbEntity
  8
3D-GENM
100
AcDbVertex
100
AcDbPolyFaceMeshVertex
 10
-5.2414813041687
 20
7.37720489501953
 30
-0.0000000000000736
 70
   192
  0
VERTEX
  5
24C
330
244
100
AcDbEntity
  8
3D-GENM
100
AcDbVertex
100
AcDbPolyFaceMeshVertex
 10
-5.249999999999999
 20
7.312499999999999
 30
-0.0000000000000736
 70
   192
  0
VERTEX
  5
24D
330
244
100
AcDbEntity
  8
3D-GENM
100
AcDbVertex
100
AcDbPolyFaceMeshVertex
 10
-5.249999999999999
 20
-7.312499999999999
 30
-0.0000000000000736
 70
   192
  0
VERTEX
  5
24E
330
244
100
AcDbEntity
  8
3D-GENM
100
AcDbVertex
100
AcDbPolyFaceMeshVertex
 10
-5.2414813041687
 20
-7.37720489501953
 30
-0.0000000000000736
 70
   192
  0
VERTEX
  5
24F
330
244
100
AcDbEntity
  8
3D-GENM
100
AcDbVertex
100
AcDbPolyFaceMeshVertex
 10
-5.216506361961363
 20
-7.437500238418578
 30
-0.0000000000000736
 70
   192
  0
VERTEX
  5
250
330
244
100
AcDbEntity
  8
3D-GENM
100
AcDbVertex
100
AcDbPolyFaceMeshVertex
 10
-5.176776766777037
 20
-7.489276885986327
 30
-0.0000000000000736
 70
   192
  0
VERTEX
  5
251
330
244
100
AcDbEntity
  8
3D-GENM
100
AcDbVertex
100
AcDbPolyFaceMeshVertex
 10
-5.125000119209288
 20
-7.529006481170653
 30
-0.0000000000000736
 70
   192
  0
VERTEX
  5
252
330
244
100
AcDbEntity
  8
3D-GENM
100
AcDbVertex
100
AcDbPolyFaceMeshVertex
 10
-5.06470477581024
 20
-7.553981781005858
 30
-0.0000000000000736
 70
   192
  0
VERTEX
  5
253
330
244
100
AcDbEntity
  8
3D-GENM
100
AcDbVertex
100
AcDbPolyFaceMeshVertex
 10
-4.999999880790709
 20
-7.56249976158142
 30
-0.0000000000000736
 70
   192
  0
VERTEX
  5
254
330
244
100
AcDbEntity
  8
3D-GENM
100
AcDbVertex
100
AcDbPolyFaceMeshVertex
 10
4.999999880790709
 20
-7.56249976158142
 30
-0.0000000000000736
 70
   192
  0
VERTEX
  5
255
330
244
100
AcDbEntity
  8
3D-GENM
100
AcDbVertex
100
AcDbPolyFaceMeshVertex
 10
5.06470477581024
 20
-7.553981781005858
 30
-0.0000000000000736
 70
   192
  0
VERTEX
  5
256
330
244
100
AcDbEntity
  8
3D-GENM
100
AcDbVertex
100
AcDbPolyFaceMeshVertex
 10
5.125000119209288
 20
-7.529006481170653
 30
-0.0000000000000736
 70
   192
  0
VERTEX
  5
257
330
244
100
AcDbEntity
  8
3D-GENM
100
AcDbVertex
100
AcDbPolyFaceMeshVertex
 10
5.176776766777037
 20
-7.489276885986327
 30
-0.0000000000000736
 70
   192
  0
VERTEX
  5
258
330
244
100
AcDbEntity
  8
3D-GENM
100
AcDbVertex
100
AcDbPolyFaceMeshVertex
 10
5.216506361961363
 20
-7.437500238418578
 30
-0.0000000000000736
 70
   192
  0
VERTEX
  5
259
330
244
100
AcDbEntity
  8
3D-GENM
100
AcDbVertex
100
AcDbPolyFaceMeshVertex
 10
5.2414813041687
 20
-7.37720489501953
 30
-0.0000000000000736
 70
   192
  0
VERTEX
  5
25A
330
244
100
AcDbEntity
  8
3D-GENM
100
AcDbVertex
100
AcDbPolyFaceMeshVertex
 10
5.249999999999999
 20
-7.312499999999999
 30
-0.0000000000000736
 70
   192
  0
VERTEX
  5
25B
330
244
100
AcDbEntity
  8
3D-GENM
100
AcDbVertex
100
AcDbPolyFaceMeshVertex
 10
5.249999999999999
 20
7.312499999999999
 30
-0.0000000000000736
 70
   192
  0
VERTEX
  5
25C
330
244
100
AcDbEntity
  8
3D-GENM
100
AcDbVertex
100
AcDbPolyFaceMeshVertex
 10
5.2414813041687
 20
7.37720489501953
 30
-0.0000000000000736
 70
   192
  0
VERTEX
  5
25D
330
244
100
AcDbEntity
  8
3D-GENM
100
AcDbVertex
100
AcDbPolyFaceMeshVertex
 10
5.216506361961363
 20
7.437500238418578
 30
-0.0000000000000736
 70
   192
  0
VERTEX
  5
25E
330
244
100
AcDbEntity
  8
3D-GENM
100
AcDbVertex
100
AcDbPolyFaceMeshVertex
 10
5.176776766777037
 20
7.489276885986327
 30
-0.0000000000000736
 70
   192
  0
VERTEX
  5
25F
330
244
100
AcDbEntity
  8
3D-GENM
100
AcDbVertex
100
AcDbPolyFaceMeshVertex
 10
5.125000119209288
 20
7.529006481170653
 30
-0.0000000000000736
 70
   192
  0
VERTEX
  5
260
330
244
100
AcDbEntity
  8
3D-GENM
100
AcDbVertex
100
AcDbPolyFaceMeshVertex
 10
5.06470477581024
 20
7.553981781005858
 30
-0.0000000000000736
 70
   192
  0
VERTEX
  5
261
330
244
100
AcDbEntity
  8
3D-GENM
100
AcDbVertex
100
AcDbPolyFaceMeshVertex
 10
-3.937499999999999
 20
0.8895238637924192
 30
-0.0000000000000736
 70
   192
  0
VERTEX
  5
262
330
244
100
AcDbEntity
  8
3D-GENM
100
AcDbVertex
100
AcDbPolyFaceMeshVertex
 10
3.937499999999999
 20
0.8895238637924192
 30
-0.0000000000000736
 70
   192
  0
VERTEX
  5
263
330
244
100
AcDbEntity
  8
3D-GENM
100
AcDbVertex
100
AcDbPolyFaceMeshVertex
 10
3.937499999999999
 20
-6.110476255416869
 30
-0.0000000000000736
 70
   192
  0
VERTEX
  5
264
330
244
100
AcDbEntity
  8
3D-GENM
100
AcDbVertex
100
AcDbPolyFaceMeshVertex
 10
-3.937499999999999
 20
-6.110476255416869
 30
-0.0000000000000736
 70
   192
  0
VERTEX
  5
265
330
244
100
AcDbEntity
  8
3D-GENM
100
AcDbFaceRecord
 10
0.0
 20
0.0
 30
0.0
 70
   128
 71
    24
 72
   -25
 73
    -1
 74
    23
  0
VERTEX
  5
266
330
244
100
AcDbEntity
  8
3D-GENM
100
AcDbFaceRecord
 10
0.0
 20
0.0
 30
0.0
 70
   128
 71
    25
 72
   -26
 73
    28
 74
    -1
  0
VERTEX
  5
267
330
244
100
AcDbEntity
  8
3D-GENM
100
AcDbFaceRecord
 10
0.0
 20
0.0
 30
0.0
 70
   128
 71
    26
 72
    27
 73
   -28
  0
VERTEX
  5
268
330
244
100
AcDbEntity
  8
3D-GENM
100
AcDbFaceRecord
 10
0.0
 20
0.0
 30
0.0
 70
   128
 71
   -30
 72
   -23
 73
    -1
 74
    29
  0
VERTEX
  5
269
330
244
100
AcDbEntity
  8
3D-GENM
100
AcDbFaceRecord
 10
0.0
 20
0.0
 30
0.0
 70
   128
 71
    22
 72
   -23
 73
    30
 74
   -31
  0
VERTEX
  5
26A
330
244
100
AcDbEntity
  8
3D-GENM
100
AcDbFaceRecord
 10
0.0
 20
0.0
 30
0.0
 70
   128
 71
   -16
 72
    20
 73
    21
 74
   -22
  0
VERTEX
  5
26B
330
244
100
AcDbEntity
  8
3D-GENM
100
AcDbFaceRecord
 10
0.0
 20
0.0
 30
0.0
 70
   128
 71
   -17
 72
    19
 73
   -20
 74
    16
  0
VERTEX
  5
26C
330
244
100
AcDbEntity
  8
3D-GENM
100
AcDbFaceRecord
 10
0.0
 20
0.0
 30
0.0
 70
   128
 71
   -16
 72
   -22
 73
    31
 74
   -32
  0
VERTEX
  5
26D
330
244
100
AcDbEntity
  8
3D-GENM
100
AcDbFaceRecord
 10
0.0
 20
0.0
 30
0.0
 70
   128
 71
    17
 72
    18
 73
   -19
  0
VERTEX
  5
26E
330
244
100
AcDbEntity
  8
3D-GENM
100
AcDbFaceRecord
 10
0.0
 20
0.0
 30
0.0
 70
   128
 71
     2
 72
    -3
 73
     6
 74
    -7
  0
VERTEX
  5
26F
330
244
100
AcDbEntity
  8
3D-GENM
100
AcDbFaceRecord
 10
0.0
 20
0.0
 30
0.0
 70
   128
 71
     3
 72
     4
 73
     5
 74
    -6
  0
VERTEX
  5
270
330
244
100
AcDbEntity
  8
3D-GENM
100
AcDbFaceRecord
 10
0.0
 20
0.0
 30
0.0
 70
   128
 71
    -2
 72
    -8
 73
   -29
 74
     1
  0
VERTEX
  5
271
330
244
100
AcDbEntity
  8
3D-GENM
100
AcDbFaceRecord
 10
0.0
 20
0.0
 30
0.0
 70
   128
 71
    -8
 72
    -2
 73
     7
  0
VERTEX
  5
272
330
244
100
AcDbEntity
  8
3D-GENM
100
AcDbFaceRecord
 10
0.0
 20
0.0
 30
0.0
 70
   128
 71
   -29
 72
     8
 73
    -9
 74
    32
  0
VERTEX
  5
273
330
244
100
AcDbEntity
  8
3D-GENM
100
AcDbFaceRecord
 10
0.0
 20
0.0
 30
0.0
 70
   128
 71
   -11
 72
    14
 73
   -15
 74
    10
  0
VERTEX
  5
274
330
244
100
AcDbEntity
  8
3D-GENM
100
AcDbFaceRecord
 10
0.0
 20
0.0
 30
0.0
 70
   128
 71
   -32
 72
    -9
 73
    15
 74
   -16
  0
VERTEX
  5
275
330
244
100
AcDbEntity
  8
3D-GENM
100
AcDbFaceRecord
 10
0.0
 20
0.0
 30
0.0
 70
   128
 71
    12
 72
    13
 73
   -14
 74
    11
  0
VERTEX
  5
276
330
244
100
AcDbEntity
  8
3D-GENM
100
AcDbFaceRecord
 10
0.0
 20
0.0
 30
0.0
 70
   128
 71
   -10
 72
   -15
 73
     9
  0
SEQEND
  5
277
330
244
100
AcDbEntity
  8
3D-GENM
  0
POLYLINE
  5
278
330
7F
100
AcDbEntity
  8
3D-GENM
100
AcDbPolyFaceMesh
 66
     1
 10
0.0
 20
0.0
 30
0.0
 70
    64
 71
    32
 72
    18
1001
REVIT
1002
{
1070
     4
1000
6208
1002
}
  0
VERTEX
  5
279
330
278
100
AcDbEntity
  8
3D-GENM
100
AcDbVertex
100
AcDbPolyFaceMeshVertex
 10
4.999999880790709
 20
7.56249976158142
 30
-2.569323956966399
 70
   192
  0
VERTEX
  5
27A
330
278
100
AcDbEntity
  8
3D-GENM
100
AcDbVertex
100
AcDbPolyFaceMeshVertex
 10
5.06470477581024
 20
7.553981781005858
 30
-2.569323956966399
 70
   192
  0
VERTEX
  5
27B
330
278
100
AcDbEntity
  8
3D-GENM
100
AcDbVertex
100
AcDbPolyFaceMeshVertex
 10
5.125000119209288
 20
7.529006481170653
 30
-2.569323956966399
 70
   192
  0
VERTEX
  5
27C
330
278
100
AcDbEntity
  8
3D-GENM
100
AcDbVertex
100
AcDbPolyFaceMeshVertex
 10
5.176776766777037
 20
7.489276885986327
 30
-2.569323956966399
 70
   192
  0
VERTEX
  5
27D
330
278
100
AcDbEntity
  8
3D-GENM
100
AcDbVertex
100
AcDbPolyFaceMeshVertex
 10
5.216506361961363
 20
7.437500238418578
 30
-2.569323956966399
 70
   192
  0
VERTEX
  5
27E
330
278
100
AcDbEntity
  8
3D-GENM
100
AcDbVertex
100
AcDbPolyFaceMeshVertex
 10
5.2414813041687
 20
7.37720489501953
 30
-2.569323956966399
 70
   192
  0
VERTEX
  5
27F
330
278
100
AcDbEntity
  8
3D-GENM
100
AcDbVertex
100
AcDbPolyFaceMeshVertex
 10
5.249999999999999
 20
7.312499999999999
 30
-2.569323956966399
 70
   192
  0
VERTEX
  5
280
330
278
100
AcDbEntity
  8
3D-GENM
100
AcDbVertex
100
AcDbPolyFaceMeshVertex
 10
5.249999999999999
 20
-7.312499999999999
 30
-2.569323956966399
 70
   192
  0
VERTEX
  5
281
330
278
100
AcDbEntity
  8
3D-GENM
100
AcDbVertex
100
AcDbPolyFaceMeshVertex
 10
5.2414813041687
 20
-7.37720489501953
 30
-2.569323956966399
 70
   192
  0
VERTEX
  5
282
330
278
100
AcDbEntity
  8
3D-GENM
100
AcDbVertex
100
AcDbPolyFaceMeshVertex
 10
5.216506361961363
 20
-7.437500238418578
 30
-2.569323956966399
 70
   192
  0
VERTEX
  5
283
330
278
100
AcDbEntity
  8
3D-GENM
100
AcDbVertex
100
AcDbPolyFaceMeshVertex
 10
5.176776766777037
 20
-7.489276885986327
 30
-2.569323956966399
 70
   192
  0
VERTEX
  5
284
330
278
100
AcDbEntity
  8
3D-GENM
100
AcDbVertex
100
AcDbPolyFaceMeshVertex
 10
5.125000119209288
 20
-7.529006481170653
 30
-2.569323956966399
 70
   192
  0
VERTEX
  5
285
330
278
100
AcDbEntity
  8
3D-GENM
100
AcDbVertex
100
AcDbPolyFaceMeshVertex
 10
5.06470477581024
 20
-7.553981781005858
 30
-2.569323956966399
 70
   192
  0
VERTEX
  5
286
330
278
100
AcDbEntity
  8
3D-GENM
100
AcDbVertex
100
AcDbPolyFaceMeshVertex
 10
4.999999880790709
 20
-7.56249976158142
 30
-2.569323956966399
 70
   192
  0
VERTEX
  5
287
330
278
100
AcDbEntity
  8
3D-GENM
100
AcDbVertex
100
AcDbPolyFaceMeshVertex
 10
-4.999999880790709
 20
-7.56249976158142
 30
-2.569323956966399
 70
   192
  0
VERTEX
  5
288
330
278
100
AcDbEntity
  8
3D-GENM
100
AcDbVertex
100
AcDbPolyFaceMeshVertex
 10
-5.06470477581024
 20
-7.553981781005858
 30
-2.569323956966399
 70
   192
  0
VERTEX
  5
289
330
278
100
AcDbEntity
  8
3D-GENM
100
AcDbVertex
100
AcDbPolyFaceMeshVertex
 10
-5.125000119209288
 20
-7.529006481170653
 30
-2.569323956966399
 70
   192
  0
VERTEX
  5
28A
330
278
100
AcDbEntity
  8
3D-GENM
100
AcDbVertex
100
AcDbPolyFaceMeshVertex
 10
-5.176776766777037
 20
-7.489276885986327
 30
-2.569323956966399
 70
   192
  0
VERTEX
  5
28B
330
278
100
AcDbEntity
  8
3D-GENM
100
AcDbVertex
100
AcDbPolyFaceMeshVertex
 10
-5.216506361961363
 20
-7.437500238418578
 30
-2.569323956966399
 70
   192
  0
VERTEX
  5
28C
330
278
100
AcDbEntity
  8
3D-GENM
100
AcDbVertex
100
AcDbPolyFaceMeshVertex
 10
-5.2414813041687
 20
-7.37720489501953
 30
-2.569323956966399
 70
   192
  0
VERTEX
  5
28D
330
278
100
AcDbEntity
  8
3D-GENM
100
AcDbVertex
100
AcDbPolyFaceMeshVertex
 10
-5.249999999999999
 20
-7.312499999999999
 30
-2.569323956966399
 70
   192
  0
VERTEX
  5
28E
330
278
100
AcDbEntity
  8
3D-GENM
100
AcDbVertex
100
AcDbPolyFaceMeshVertex
 10
-5.249999999999999
 20
7.312499999999999
 30
-2.569323956966399
 70
   192
  0
VERTEX
  5
28F
330
278
100
AcDbEntity
  8
3D-GENM
100
AcDbVertex
100
AcDbPolyFaceMeshVertex
 10
-5.2414813041687
 20
7.37720489501953
 30
-2.569323956966399
 70
   192
  0
VERTEX
  5
290
330
278
100
AcDbEntity
  8
3D-GENM
100
AcDbVertex
100
AcDbPolyFaceMeshVertex
 10
-5.216506361961363
 20
7.437500238418578
 30
-2.569323956966399
 70
   192
  0
VERTEX
  5
291
330
278
100
AcDbEntity
  8
3D-GENM
100
AcDbVertex
100
AcDbPolyFaceMeshVertex
 10
-5.176776766777037
 20
7.489276885986327
 30
-2.569323956966399
 70
   192
  0
VERTEX
  5
292
330
278
100
AcDbEntity
  8
3D-GENM
100
AcDbVertex
100
AcDbPolyFaceMeshVertex
 10
-5.125000119209288
 20
7.529006481170653
 30
-2.569323956966399
 70
   192
  0
VERTEX
  5
293
330
278
100
AcDbEntity
  8
3D-GENM
100
AcDbVertex
100
AcDbPolyFaceMeshVertex
 10
-5.06470477581024
 20
7.553981781005858
 30
-2.569323956966399
 70
   192
  0
VERTEX
  5
294
330
278
100
AcDbEntity
  8
3D-GENM
100
AcDbVertex
100
AcDbPolyFaceMeshVertex
 10
-4.999999880790709
 20
7.56249976158142
 30
-2.569323956966399
 70
   192
  0
VERTEX
  5
295
330
278
100
AcDbEntity
  8
3D-GENM
100
AcDbVertex
100
AcDbPolyFaceMeshVertex
 10
-3.937499999999999
 20
0.8895238637924192
 30
-2.569323956966399
 70
   192
  0
VERTEX
  5
296
330
278
100
AcDbEntity
  8
3D-GENM
100
AcDbVertex
100
AcDbPolyFaceMeshVertex
 10
-3.937499999999999
 20
-6.110476255416869
 30
-2.569323956966399
 70
   192
  0
VERTEX
  5
297
330
278
100
AcDbEntity
  8
3D-GENM
100
AcDbVertex
100
AcDbPolyFaceMeshVertex
 10
3.937499999999999
 20
-6.110476255416869
 30
-2.569323956966399
 70
   192
  0
VERTEX
  5
298
330
278
100
AcDbEntity
  8
3D-GENM
100
AcDbVertex
100
AcDbPolyFaceMeshVertex
 10
3.937499999999999
 20
0.8895238637924192
 30
-2.569323956966399
 70
   192
  0
VERTEX
  5
299
330
278
100
AcDbEntity
  8
3D-GENM
100
AcDbFaceRecord
 10
0.0
 20
0.0
 30
0.0
 70
   128
 71
    23
 72
   -24
 73
   -28
 74
    22
  0
VERTEX
  5
29A
330
278
100
AcDbEntity
  8
3D-GENM
100
AcDbFaceRecord
 10
0.0
 20
0.0
 30
0.0
 70
   128
 71
    24
 72
   -25
 73
    27
 74
   -28
  0
VERTEX
  5
29B
330
278
100
AcDbEntity
  8
3D-GENM
100
AcDbFaceRecord
 10
0.0
 20
0.0
 30
0.0
 70
   128
 71
    25
 72
    26
 73
   -27
  0
VERTEX
  5
29C
330
278
100
AcDbEntity
  8
3D-GENM
100
AcDbFaceRecord
 10
0.0
 20
0.0
 30
0.0
 70
   128
 71
   -29
 72
   -22
 73
   -28
 74
    32
  0
VERTEX
  5
29D
330
278
100
AcDbEntity
  8
3D-GENM
100
AcDbFaceRecord
 10
0.0
 20
0.0
 30
0.0
 70
   128
 71
    21
 72
   -22
 73
    29
 74
   -30
  0
VERTEX
  5
29E
330
278
100
AcDbEntity
  8
3D-GENM
100
AcDbFaceRecord
 10
0.0
 20
0.0
 30
0.0
 70
   128
 71
   -15
 72
    19
 73
    20
 74
   -21
  0
VERTEX
  5
29F
330
278
100
AcDbEntity
  8
3D-GENM
100
AcDbFaceRecord
 10
0.0
 20
0.0
 30
0.0
 70
   128
 71
   -16
 72
    18
 73
   -19
 74
    15
  0
VERTEX
  5
2A0
330
278
100
AcDbEntity
  8
3D-GENM
100
AcDbFaceRecord
 10
0.0
 20
0.0
 30
0.0
 70
   128
 71
   -15
 72
   -21
 73
    30
 74
   -31
  0
VERTEX
  5
2A1
330
278
100
AcDbEntity
  8
3D-GENM
100
AcDbFaceRecord
 10
0.0
 20
0.0
 30
0.0
 70
   128
 71
    16
 72
    17
 73
   -18
  0
VERTEX
  5
2A2
330
278
100
AcDbEntity
  8
3D-GENM
100
AcDbFaceRecord
 10
0.0
 20
0.0
 30
0.0
 70
   128
 71
     1
 72
    -2
 73
     5
 74
    -6
  0
VERTEX
  5
2A3
330
278
100
AcDbEntity
  8
3D-GENM
100
AcDbFaceRecord
 10
0.0
 20
0.0
 30
0.0
 70
   128
 71
     2
 72
     3
 73
     4
 74
    -5
  0
VERTEX
  5
2A4
330
278
100
AcDbEntity
  8
3D-GENM
100
AcDbFaceRecord
 10
0.0
 20
0.0
 30
0.0
 70
   128
 71
    -1
 72
    -7
 73
   -32
 74
    28
  0
VERTEX
  5
2A5
330
278
100
AcDbEntity
  8
3D-GENM
100
AcDbFaceRecord
 10
0.0
 20
0.0
 30
0.0
 70
   128
 71
    -7
 72
    -1
 73
     6
  0
VERTEX
  5
2A6
330
278
100
AcDbEntity
  8
3D-GENM
100
AcDbFaceRecord
 10
0.0
 20
0.0
 30
0.0
 70
   128
 71
   -32
 72
     7
 73
    -8
 74
    31
  0
VERTEX
  5
2A7
330
278
100
AcDbEntity
  8
3D-GENM
100
AcDbFaceRecord
 10
0.0
 20
0.0
 30
0.0
 70
   128
 71
   -10
 72
    13
 73
   -14
 74
     9
  0
VERTEX
  5
2A8
330
278
100
AcDbEntity
  8
3D-GENM
100
AcDbFaceRecord
 10
0.0
 20
0.0
 30
0.0
 70
   128
 71
   -31
 72
    -8
 73
    14
 74
   -15
  0
VERTEX
  5
2A9
330
278
100
AcDbEntity
  8
3D-GENM
100
AcDbFaceRecord
 10
0.0
 20
0.0
 30
0.0
 70
   128
 71
    11
 72
    12
 73
   -13
 74
    10
  0
VERTEX
  5
2AA
330
278
100
AcDbEntity
  8
3D-GENM
100
AcDbFaceRecord
 10
0.0
 20
0.0
 30
0.0
 70
   128
 71
    -9
 72
   -14
 73
     8
  0
SEQEND
  5
2AB
330
278
100
AcDbEntity
  8
3D-GENM
  0
POLYLINE
  5
2AC
330
7F
100
AcDbEntity
  8
3D-GENM
100
AcDbPolyFaceMesh
 66
     1
 10
0.0
 20
0.0
 30
0.0
 70
    64
 71
     4
 72
     1
1001
REVIT
1002
{
1070
     4
1000
6208
1002
}
  0
VERTEX
  5
2AD
330
2AC
100
AcDbEntity
  8
3D-GENM
100
AcDbVertex
100
AcDbPolyFaceMeshVertex
 10
-4.999999880790709
 20
7.56249976158142
 30
-0.0000000000000736
 70
   192
  0
VERTEX
  5
2AE
330
2AC
100
AcDbEntity
  8
3D-GENM
100
AcDbVertex
100
AcDbPolyFaceMeshVertex
 10
4.999999880790709
 20
7.56249976158142
 30
-0.0000000000000736
 70
   192
  0
VERTEX
  5
2AF
330
2AC
100
AcDbEntity
  8
3D-GENM
100
AcDbVertex
100
AcDbPolyFaceMeshVertex
 10
4.999999880790709
 20
7.56249976158142
 30
-2.569323956966399
 70
   192
  0
VERTEX
  5
2B0
330
2AC
100
AcDbEntity
  8
3D-GENM
100
AcDbVertex
100
AcDbPolyFaceMeshVertex
 10
-4.999999880790709
 20
7.56249976158142
 30
-2.569323956966399
 70
   192
  0
VERTEX
  5
2B1
330
2AC
100
AcDbEntity
  8
3D-GENM
100
AcDbFaceRecord
 10
0.0
 20
0.0
 30
0.0
 70
   128
 71
     1
 72
     2
 73
     3
 74
     4
  0
SEQEND
  5
2B2
330
2AC
100
AcDbEntity
  8
3D-GENM
  0
POLYLINE
  5
2B3
330
7F
100
AcDbEntity
  8
3D-GENM
100
AcDbPolyFaceMesh
 66
     1
 10
0.0
 20
0.0
 30
0.0
 70
    64
 71
    14
 72
     6
1001
REVIT
1002
{
1070
     4
1000
6208
1002
}
  0
VERTEX
  5
2B4
330
2B3
100
AcDbEntity
  8
3D-GENM
100
AcDbVertex
100
AcDbPolyFaceMeshVertex
 10
-5.249999999999999
 20
7.312499999999999
 30
-0.0000000000000736
 70
   192
  0
VERTEX
  5
2B5
330
2B3
100
AcDbEntity
  8
3D-GENM
100
AcDbVertex
100
AcDbPolyFaceMeshVertex
 10
-5.2414813041687
 20
7.37720489501953
 30
-0.0000000000000736
 70
   192
  0
VERTEX
  5
2B6
330
2B3
100
AcDbEntity
  8
3D-GENM
100
AcDbVertex
100
AcDbPolyFaceMeshVertex
 10
-5.216506361961363
 20
7.437500238418578
 30
-0.0000000000000736
 70
   192
  0
VERTEX
  5
2B7
330
2B3
100
AcDbEntity
  8
3D-GENM
100
AcDbVertex
100
AcDbPolyFaceMeshVertex
 10
-5.176776766777037
 20
7.489276885986327
 30
-0.0000000000000736
 70
   192
  0
VERTEX
  5
2B8
330
2B3
100
AcDbEntity
  8
3D-GENM
100
AcDbVertex
100
AcDbPolyFaceMeshVertex
 10
-5.125000119209288
 20
7.529006481170653
 30
-0.0000000000000736
 70
   192
  0
VERTEX
  5
2B9
330
2B3
100
AcDbEntity
  8
3D-GENM
100
AcDbVertex
100
AcDbPolyFaceMeshVertex
 10
-5.06470477581024
 20
7.553981781005858
 30
-0.0000000000000736
 70
   192
  0
VERTEX
  5
2BA
330
2B3
100
AcDbEntity
  8
3D-GENM
100
AcDbVertex
100
AcDbPolyFaceMeshVertex
 10
-4.999999880790709
 20
7.56249976158142
 30
-0.0000000000000736
 70
   192
  0
VERTEX
  5
2BB
330
2B3
100
AcDbEntity
  8
3D-GENM
100
AcDbVertex
100
AcDbPolyFaceMeshVertex
 10
-4.999999880790709
 20
7.56249976158142
 30
-2.569323956966399
 70
   192
  0
VERTEX
  5
2BC
330
2B3
100
AcDbEntity
  8
3D-GENM
100
AcDbVertex
100
AcDbPolyFaceMeshVertex
 10
-5.06470477581024
 20
7.553981781005858
 30
-2.569323956966399
 70
   192
  0
VERTEX
  5
2BD
330
2B3
100
AcDbEntity
  8
3D-GENM
100
AcDbVertex
100
AcDbPolyFaceMeshVertex
 10
-5.125000119209288
 20
7.529006481170653
 30
-2.569323956966399
 70
   192
  0
VERTEX
  5
2BE
330
2B3
100
AcDbEntity
  8
3D-GENM
100
AcDbVertex
100
AcDbPolyFaceMeshVertex
 10
-5.176776766777037
 20
7.489276885986327
 30
-2.569323956966399
 70
   192
  0
VERTEX
  5
2BF
330
2B3
100
AcDbEntity
  8
3D-GENM
100
AcDbVertex
100
AcDbPolyFaceMeshVertex
 10
-5.216506361961363
 20
7.437500238418578
 30
-2.569323956966399
 70
   192
  0
VERTEX
  5
2C0
330
2B3
100
AcDbEntity
  8
3D-GENM
100
AcDbVertex
100
AcDbPolyFaceMeshVertex
 10
-5.2414813041687
 20
7.37720489501953
 30
-2.569323956966399
 70
   192
  0
VERTEX
  5
2C1
330
2B3
100
AcDbEntity
  8
3D-GENM
100
AcDbVertex
100
AcDbPolyFaceMeshVertex
 10
-5.249999999999999
 20
7.312499999999999
 30
-2.569323956966399
 70
   192
  0
VERTEX
  5
2C2
330
2B3
100
AcDbEntity
  8
3D-GENM
100
AcDbFaceRecord
 10
0.0
 20
0.0
 30
0.0
 70
   128
 71
     8
 72
    -9
 73
     6
 74
     7
  0
VERTEX
  5
2C3
330
2B3
100
AcDbEntity
  8
3D-GENM
100
AcDbFaceRecord
 10
0.0
 20
0.0
 30
0.0
 70
   128
 71
     9
 72
   -10
 73
     5
 74
    -6
  0
VERTEX
  5
2C4
330
2B3
100
AcDbEntity
  8
3D-GENM
100
AcDbFaceRecord
 10
0.0
 20
0.0
 30
0.0
 70
   128
 71
     4
 72
    -5
 73
    10
 74
   -11
  0
VERTEX
  5
2C5
330
2B3
100
AcDbEntity
  8
3D-GENM
100
AcDbFaceRecord
 10
0.0
 20
0.0
 30
0.0
 70
   128
 71
    11
 72
   -12
 73
     3
 74
    -4
  0
VERTEX
  5
2C6
330
2B3
100
AcDbEntity
  8
3D-GENM
100
AcDbFaceRecord
 10
0.0
 20
0.0
 30
0.0
 70
   128
 71
    12
 72
   -13
 73
     2
 74
    -3
  0
VERTEX
  5
2C7
330
2B3
100
AcDbEntity
  8
3D-GENM
100
AcDbFaceRecord
 10
0.0
 20
0.0
 30
0.0
 70
   128
 71
     1
 72
    -2
 73
    13
 74
    14
  0
SEQEND
  5
2C8
330
2B3
100
AcDbEntity
  8
3D-GENM
  0
POLYLINE
  5
2C9
330
7F
100
AcDbEntity
  8
3D-GENM
100
AcDbPolyFaceMesh
 66
     1
 10
0.0
 20
0.0
 30
0.0
 70
    64
 71
    28
 72
    25
1001
REVIT
1002
{
1070
     4
1000
6208
1002
}
  0
VERTEX
  5
2CA
330
2C9
100
AcDbEntity
  8
3D-GENM
100
AcDbVertex
100
AcDbPolyFaceMeshVertex
 10
-5.249999999999999
 20
-7.312499999999999
 30
-0.0000000000000736
 70
   192
  0
VERTEX
  5
2CB
330
2C9
100
AcDbEntity
  8
3D-GENM
100
AcDbVertex
100
AcDbPolyFaceMeshVertex
 10
-5.249999999999999
 20
7.312499999999999
 30
-0.0000000000000736
 70
   192
  0
VERTEX
  5
2CC
330
2C9
100
AcDbEntity
  8
3D-GENM
100
AcDbVertex
100
AcDbPolyFaceMeshVertex
 10
-5.249999999999999
 20
7.312499999999999
 30
-2.569323956966399
 70
   192
  0
VERTEX
  5
2CD
330
2C9
100
AcDbEntity
  8
3D-GENM
100
AcDbVertex
100
AcDbPolyFaceMeshVertex
 10
-5.249999999999999
 20
-7.312499999999999
 30
-2.569323956966399
 70
   192
  0
VERTEX
  5
2CE
330
2C9
100
AcDbEntity
  8
3D-GENM
100
AcDbVertex
100
AcDbPolyFaceMeshVertex
 10
-5.249999999999999
 20
-2.999999999999999
 30
-1.968749999999999
 70
   192
  0
VERTEX
  5
2CF
330
2C9
100
AcDbEntity
  8
3D-GENM
100
AcDbVertex
100
AcDbPolyFaceMeshVertex
 10
-5.249999999999999
 20
-2.985092461109161
 30
-2.081983387470244
 70
   192
  0
VERTEX
  5
2D0
330
2C9
100
AcDbEntity
  8
3D-GENM
100
AcDbVertex
100
AcDbPolyFaceMeshVertex
 10
-5.249999999999999
 20
-2.94138604402542
 30
-2.187500059604644
 70
   192
  0
VERTEX
  5
2D1
330
2C9
100
AcDbEntity
  8
3D-GENM
100
AcDbVertex
100
AcDbPolyFaceMeshVertex
 10
-5.249999999999999
 20
-2.871859252452849
 30
-2.278109192848205
 70
   192
  0
VERTEX
  5
2D2
330
2C9
100
AcDbEntity
  8
3D-GENM
100
AcDbVertex
100
AcDbPolyFaceMeshVertex
 10
-5.249999999999999
 20
-2.781249940395354
 30
-2.34763616323471
 70
   192
  0
VERTEX
  5
2D3
330
2C9
100
AcDbEntity
  8
3D-GENM
100
AcDbVertex
100
AcDbPolyFaceMeshVertex
 10
-5.249999999999999
 20
-2.675733268260955
 30
-2.39134258031845
 70
   192
  0
VERTEX
  5
2D4
330
2C9
100
AcDbEntity
  8
3D-GENM
100
AcDbVertex
100
AcDbPolyFaceMeshVertex
 10
-5.249999999999999
 20
-2.562500059604644
 30
-2.406249940395354
 70
   192
  0
VERTEX
  5
2D5
330
2C9
100
AcDbEntity
  8
3D-GENM
100
AcDbVertex
100
AcDbPolyFaceMeshVertex
 10
-5.249999999999999
 20
-2.449266672134398
 30
-2.39134258031845
 70
   192
  0
VERTEX
  5
2D6
330
2C9
100
AcDbEntity
  8
3D-GENM
100
AcDbVertex
100
AcDbPolyFaceMeshVertex
 10
-5.249999999999999
 20
-2.343749999999999
 30
-2.34763616323471
 70
   192
  0
VERTEX
  5
2D7
330
2C9
100
AcDbEntity
  8
3D-GENM
100
AcDbVertex
100
AcDbPolyFaceMeshVertex
 10
-5.249999999999999
 20
-2.253140866756438
 30
-2.278109192848205
 70
   192
  0
VERTEX
  5
2D8
330
2C9
100
AcDbEntity
  8
3D-GENM
100
AcDbVertex
100
AcDbPolyFaceMeshVertex
 10
-5.249999999999999
 20
-2.183613896369933
 30
-2.187500059604644
 70
   192
  0
VERTEX
  5
2D9
330
2C9
100
AcDbEntity
  8
3D-GENM
100
AcDbVertex
100
AcDbPolyFaceMeshVertex
 10
-5.249999999999999
 20
-2.139907479286193
 30
-2.081983387470244
 70
   192
  0
VERTEX
  5
2DA
330
2C9
100
AcDbEntity
  8
3D-GENM
100
AcDbVertex
100
AcDbPolyFaceMeshVertex
 10
-5.249999999999999
 20
-2.124999940395354
 30
-1.968749999999999
 70
   192
  0
VERTEX
  5
2DB
330
2C9
100
AcDbEntity
  8
3D-GENM
100
AcDbVertex
100
AcDbPolyFaceMeshVertex
 10
-5.249999999999999
 20
-2.139907479286193
 30
-1.855516612529754
 70
   192
  0
VERTEX
  5
2DC
330
2C9
100
AcDbEntity
  8
3D-GENM
100
AcDbVertex
100
AcDbPolyFaceMeshVertex
 10
-5.249999999999999
 20
-2.183613896369933
 30
-1.749999940395355
 70
   192
  0
VERTEX
  5
2DD
330
2C9
100
AcDbEntity
  8
3D-GENM
100
AcDbVertex
100
AcDbPolyFaceMeshVertex
 10
-5.249999999999999
 20
-2.253140866756438
 30
-1.659390807151794
 70
   192
  0
VERTEX
  5
2DE
330
2C9
100
AcDbEntity
  8
3D-GENM
100
AcDbVertex
100
AcDbPolyFaceMeshVertex
 10
-5.249999999999999
 20
-2.343749999999999
 30
-1.589863836765289
 70
   192
  0
VERTEX
  5
2DF
330
2C9
100
AcDbEntity
  8
3D-GENM
100
AcDbVertex
100
AcDbPolyFaceMeshVertex
 10
-5.249999999999999
 20
-2.449266672134398
 30
-1.546157419681548
 70
   192
  0
VERTEX
  5
2E0
330
2C9
100
AcDbEntity
  8
3D-GENM
100
AcDbVertex
100
AcDbPolyFaceMeshVertex
 10
-5.249999999999999
 20
-2.562500059604644
 30
-1.531250059604644
 70
   192
  0
VERTEX
  5
2E1
330
2C9
100
AcDbEntity
  8
3D-GENM
100
AcDbVertex
100
AcDbPolyFaceMeshVertex
 10
-5.249999999999999
 20
-2.675733268260955
 30
-1.546157419681548
 70
   192
  0
VERTEX
  5
2E2
330
2C9
100
AcDbEntity
  8
3D-GENM
100
AcDbVertex
100
AcDbPolyFaceMeshVertex
 10
-5.249999999999999
 20
-2.781249940395354
 30
-1.589863836765289
 70
   192
  0
VERTEX
  5
2E3
330
2C9
100
AcDbEntity
  8
3D-GENM
100
AcDbVertex
100
AcDbPolyFaceMeshVertex
 10
-5.249999999999999
 20
-2.871859252452849
 30
-1.659390807151794
 70
   192
  0
VERTEX
  5
2E4
330
2C9
100
AcDbEntity
  8
3D-GENM
100
AcDbVertex
100
AcDbPolyFaceMeshVertex
 10
-5.249999999999999
 20
-2.94138604402542
 30
-1.749999940395355
 70
   192
  0
VERTEX
  5
2E5
330
2C9
100
AcDbEntity
  8
3D-GENM
100
AcDbVertex
100
AcDbPolyFaceMeshVertex
 10
-5.249999999999999
 20
-2.985092461109161
 30
-1.855516612529754
 70
   192
  0
VERTEX
  5
2E6
330
2C9
100
AcDbEntity
  8
3D-GENM
100
AcDbFaceRecord
 10
0.0
 20
0.0
 30
0.0
 70
   128
 71
    -2
 72
    21
 73
   -22
  0
VERTEX
  5
2E7
330
2C9
100
AcDbEntity
  8
3D-GENM
100
AcDbFaceRecord
 10
0.0
 20
0.0
 30
0.0
 70
   128
 71
   -21
 72
    -2
 73
    20
  0
VERTEX
  5
2E8
330
2C9
100
AcDbEntity
  8
3D-GENM
100
AcDbFaceRecord
 10
0.0
 20
0.0
 30
0.0
 70
   128
 71
     1
 72
    -2
 73
    22
 74
   -23
  0
VERTEX
  5
2E9
330
2C9
100
AcDbEntity
  8
3D-GENM
100
AcDbFaceRecord
 10
0.0
 20
0.0
 30
0.0
 70
   128
 71
    17
 72
   -18
 73
     2
 74
    -3
  0
VERTEX
  5
2EA
330
2C9
100
AcDbEntity
  8
3D-GENM
100
AcDbFaceRecord
 10
0.0
 20
0.0
 30
0.0
 70
   128
 71
    19
 72
   -20
 73
    -2
  0
VERTEX
  5
2EB
330
2C9
100
AcDbEntity
  8
3D-GENM
100
AcDbFaceRecord
 10
0.0
 20
0.0
 30
0.0
 70
   128
 71
    18
 72
   -19
 73
    -2
  0
VERTEX
  5
2EC
330
2C9
100
AcDbEntity
  8
3D-GENM
100
AcDbFaceRecord
 10
0.0
 20
0.0
 30
0.0
 70
   128
 71
    -1
 72
    23
 73
   -24
  0
VERTEX
  5
2ED
330
2C9
100
AcDbEntity
  8
3D-GENM
100
AcDbFaceRecord
 10
0.0
 20
0.0
 30
0.0
 70
   128
 71
    -1
 72
    24
 73
   -25
  0
VERTEX
  5
2EE
330
2C9
100
AcDbEntity
  8
3D-GENM
100
AcDbFaceRecord
 10
0.0
 20
0.0
 30
0.0
 70
   128
 71
    25
 72
   -26
 73
    -1
  0
VERTEX
  5
2EF
330
2C9
100
AcDbEntity
  8
3D-GENM
100
AcDbFaceRecord
 10
0.0
 20
0.0
 30
0.0
 70
   128
 71
    -1
 72
    27
 73
   -28
 74
     4
  0
VERTEX
  5
2F0
330
2C9
100
AcDbEntity
  8
3D-GENM
100
AcDbFaceRecord
 10
0.0
 20
0.0
 30
0.0
 70
   128
 71
    26
 72
   -27
 73
    -1
  0
VERTEX
  5
2F1
330
2C9
100
AcDbEntity
  8
3D-GENM
100
AcDbFaceRecord
 10
0.0
 20
0.0
 30
0.0
 70
   128
 71
    15
 72
   -16
 73
    -3
  0
VERTEX
  5
2F2
330
2C9
100
AcDbEntity
  8
3D-GENM
100
AcDbFaceRecord
 10
0.0
 20
0.0
 30
0.0
 70
   128
 71
    14
 72
   -15
 73
    -3
  0
VERTEX
  5
2F3
330
2C9
100
AcDbEntity
  8
3D-GENM
100
AcDbFaceRecord
 10
0.0
 20
0.0
 30
0.0
 70
   128
 71
   -13
 72
    -3
 73
    12
  0
VERTEX
  5
2F4
330
2C9
100
AcDbEntity
  8
3D-GENM
100
AcDbFaceRecord
 10
0.0
 20
0.0
 30
0.0
 70
   128
 71
    -3
 72
    13
 73
   -14
  0
VERTEX
  5
2F5
330
2C9
100
AcDbEntity
  8
3D-GENM
100
AcDbFaceRecord
 10
0.0
 20
0.0
 30
0.0
 70
   128
 71
    11
 72
   -12
 73
    -3
  0
VERTEX
  5
2F6
330
2C9
100
AcDbEntity
  8
3D-GENM
100
AcDbFaceRecord
 10
0.0
 20
0.0
 30
0.0
 70
   128
 71
     3
 72
    -4
 73
   -11
  0
VERTEX
  5
2F7
330
2C9
100
AcDbEntity
  8
3D-GENM
100
AcDbFaceRecord
 10
0.0
 20
0.0
 30
0.0
 70
   128
 71
     6
 72
    -7
 73
    -4
  0
VERTEX
  5
2F8
330
2C9
100
AcDbEntity
  8
3D-GENM
100
AcDbFaceRecord
 10
0.0
 20
0.0
 30
0.0
 70
   128
 71
     5
 72
    -6
 73
    -4
  0
VERTEX
  5
2F9
330
2C9
100
AcDbEntity
  8
3D-GENM
100
AcDbFaceRecord
 10
0.0
 20
0.0
 30
0.0
 70
   128
 71
     9
 72
   -10
 73
    -4
  0
VERTEX
  5
2FA
330
2C9
100
AcDbEntity
  8
3D-GENM
100
AcDbFaceRecord
 10
0.0
 20
0.0
 30
0.0
 70
   128
 71
    -8
 72
    -4
 73
     7
  0
VERTEX
  5
2FB
330
2C9
100
AcDbEntity
  8
3D-GENM
100
AcDbFaceRecord
 10
0.0
 20
0.0
 30
0.0
 70
   128
 71
    -4
 72
     8
 73
    -9
  0
VERTEX
  5
2FC
330
2C9
100
AcDbEntity
  8
3D-GENM
100
AcDbFaceRecord
 10
0.0
 20
0.0
 30
0.0
 70
   128
 71
    10
 72
   -11
 73
    -4
  0
VERTEX
  5
2FD
330
2C9
100
AcDbEntity
  8
3D-GENM
100
AcDbFaceRecord
 10
0.0
 20
0.0
 30
0.0
 70
   128
 71
    -5
 72
    -4
 73
    28
  0
VERTEX
  5
2FE
330
2C9
100
AcDbEntity
  8
3D-GENM
100
AcDbFaceRecord
 10
0.0
 20
0.0
 30
0.0
 70
   128
 71
    16
 72
   -17
 73
    -3
  0
SEQEND
  5
2FF
330
2C9
100
AcDbEntity
  8
3D-GENM
  0
POLYLINE
  5
300
330
7F
100
AcDbEntity
  8
3D-GENM
100
AcDbPolyFaceMesh
 66
     1
 10
0.0
 20
0.0
 30
0.0
 70
    64
 71
    14
 72
     6
1001
REVIT
1002
{
1070
     4
1000
6208
1002
}
  0
VERTEX
  5
301
330
300
100
AcDbEntity
  8
3D-GENM
100
AcDbVertex
100
AcDbPolyFaceMeshVertex
 10
-4.999999880790709
 20
-7.56249976158142
 30
-0.0000000000000736
 70
   192
  0
VERTEX
  5
302
330
300
100
AcDbEntity
  8
3D-GENM
100
AcDbVertex
100
AcDbPolyFaceMeshVertex
 10
-5.06470477581024
 20
-7.553981781005858
 30
-0.0000000000000736
 70
   192
  0
VERTEX
  5
303
330
300
100
AcDbEntity
  8
3D-GENM
100
AcDbVertex
100
AcDbPolyFaceMeshVertex
 10
-5.125000119209288
 20
-7.529006481170653
 30
-0.0000000000000736
 70
   192
  0
VERTEX
  5
304
330
300
100
AcDbEntity
  8
3D-GENM
100
AcDbVertex
100
AcDbPolyFaceMeshVertex
 10
-5.176776766777037
 20
-7.489276885986327
 30
-0.0000000000000736
 70
   192
  0
VERTEX
  5
305
330
300
100
AcDbEntity
  8
3D-GENM
100
AcDbVertex
100
AcDbPolyFaceMeshVertex
 10
-5.216506361961363
 20
-7.437500238418578
 30
-0.0000000000000736
 70
   192
  0
VERTEX
  5
306
330
300
100
AcDbEntity
  8
3D-GENM
100
AcDbVertex
100
AcDbPolyFaceMeshVertex
 10
-5.2414813041687
 20
-7.37720489501953
 30
-0.0000000000000736
 70
   192
  0
VERTEX
  5
307
330
300
100
AcDbEntity
  8
3D-GENM
100
AcDbVertex
100
AcDbPolyFaceMeshVertex
 10
-5.249999999999999
 20
-7.312499999999999
 30
-0.0000000000000736
 70
   192
  0
VERTEX
  5
308
330
300
100
AcDbEntity
  8
3D-GENM
100
AcDbVertex
100
AcDbPolyFaceMeshVertex
 10
-5.249999999999999
 20
-7.312499999999999
 30
-2.569323956966399
 70
   192
  0
VERTEX
  5
309
330
300
100
AcDbEntity
  8
3D-GENM
100
AcDbVertex
100
AcDbPolyFaceMeshVertex
 10
-5.2414813041687
 20
-7.37720489501953
 30
-2.569323956966399
 70
   192
  0
VERTEX
  5
30A
330
300
100
AcDbEntity
  8
3D-GENM
100
AcDbVertex
100
AcDbPolyFaceMeshVertex
 10
-5.216506361961363
 20
-7.437500238418578
 30
-2.569323956966399
 70
   192
  0
VERTEX
  5
30B
330
300
100
AcDbEntity
  8
3D-GENM
100
AcDbVertex
100
AcDbPolyFaceMeshVertex
 10
-5.176776766777037
 20
-7.489276885986327
 30
-2.569323956966399
 70
   192
  0
VERTEX
  5
30C
330
300
100
AcDbEntity
  8
3D-GENM
100
AcDbVertex
100
AcDbPolyFaceMeshVertex
 10
-5.125000119209288
 20
-7.529006481170653
 30
-2.569323956966399
 70
   192
  0
VERTEX
  5
30D
330
300
100
AcDbEntity
  8
3D-GENM
100
AcDbVertex
100
AcDbPolyFaceMeshVertex
 10
-5.06470477581024
 20
-7.553981781005858
 30
-2.569323956966399
 70
   192
  0
VERTEX
  5
30E
330
300
100
AcDbEntity
  8
3D-GENM
100
AcDbVertex
100
AcDbPolyFaceMeshVertex
 10
-4.999999880790709
 20
-7.56249976158142
 30
-2.569323956966399
 70
   192
  0
VERTEX
  5
30F
330
300
100
AcDbEntity
  8
3D-GENM
100
AcDbFaceRecord
 10
0.0
 20
0.0
 30
0.0
 70
   128
 71
     8
 72
    -9
 73
     6
 74
     7
  0
VERTEX
  5
310
330
300
100
AcDbEntity
  8
3D-GENM
100
AcDbFaceRecord
 10
0.0
 20
0.0
 30
0.0
 70
   128
 71
     9
 72
   -10
 73
     5
 74
    -6
  0
VERTEX
  5
311
330
300
100
AcDbEntity
  8
3D-GENM
100
AcDbFaceRecord
 10
0.0
 20
0.0
 30
0.0
 70
   128
 71
     4
 72
    -5
 73
    10
 74
   -11
  0
VERTEX
  5
312
330
300
100
AcDbEntity
  8
3D-GENM
100
AcDbFaceRecord
 10
0.0
 20
0.0
 30
0.0
 70
   128
 71
    11
 72
   -12
 73
     3
 74
    -4
  0
VERTEX
  5
313
330
300
100
AcDbEntity
  8
3D-GENM
100
AcDbFaceRecord
 10
0.0
 20
0.0
 30
0.0
 70
   128
 71
    12
 72
   -13
 73
     2
 74
    -3
  0
VERTEX
  5
314
330
300
100
AcDbEntity
  8
3D-GENM
100
AcDbFaceRecord
 10
0.0
 20
0.0
 30
0.0
 70
   128
 71
     1
 72
    -2
 73
    13
 74
    14
  0
SEQEND
  5
315
330
300
100
AcDbEntity
  8
3D-GENM
  0
POLYLINE
  5
316
330
7F
100
AcDbEntity
  8
3D-GENM
100
AcDbPolyFaceMesh
 66
     1
 10
0.0
 20
0.0
 30
0.0
 70
    64
 71
    52
 72
    38
1001
REVIT
1002
{
1070
     4
1000
6208
1002
}
  0
VERTEX
  5
317
330
316
100
AcDbEntity
  8
3D-GENM
100
AcDbVertex
100
AcDbPolyFaceMeshVertex
 10
4.999999880790709
 20
-7.56249976158142
 30
-0.0000000000000736
 70
   192
  0
VERTEX
  5
318
330
316
100
AcDbEntity
  8
3D-GENM
100
AcDbVertex
100
AcDbPolyFaceMeshVertex
 10
-4.999999880790709
 20
-7.56249976158142
 30
-0.0000000000000736
 70
   192
  0
VERTEX
  5
319
330
316
100
AcDbEntity
  8
3D-GENM
100
AcDbVertex
100
AcDbPolyFaceMeshVertex
 10
-4.999999880790709
 20
-7.56249976158142
 30
-2.569323956966399
 70
   192
  0
VERTEX
  5
31A
330
316
100
AcDbEntity
  8
3D-GENM
100
AcDbVertex
100
AcDbPolyFaceMeshVertex
 10
4.999999880790709
 20
-7.56249976158142
 30
-2.569323956966399
 70
   192
  0
VERTEX
  5
31B
330
316
100
AcDbEntity
  8
3D-GENM
100
AcDbVertex
100
AcDbPolyFaceMeshVertex
 10
-2.062499999999999
 20
-7.56249976158142
 30
-1.968749999999999
 70
   192
  0
VERTEX
  5
31C
330
316
100
AcDbEntity
  8
3D-GENM
100
AcDbVertex
100
AcDbPolyFaceMeshVertex
 10
-2.077407538890838
 20
-7.56249976158142
 30
-2.081983387470244
 70
   192
  0
VERTEX
  5
31D
330
316
100
AcDbEntity
  8
3D-GENM
100
AcDbVertex
100
AcDbPolyFaceMeshVertex
 10
-2.121113955974578
 20
-7.56249976158142
 30
-2.187500059604644
 70
   192
  0
VERTEX
  5
31E
330
316
100
AcDbEntity
  8
3D-GENM
100
AcDbVertex
100
AcDbPolyFaceMeshVertex
 10
-2.190640747547149
 20
-7.56249976158142
 30
-2.278109192848205
 70
   192
  0
VERTEX
  5
31F
330
316
100
AcDbEntity
  8
3D-GENM
100
AcDbVertex
100
AcDbPolyFaceMeshVertex
 10
-2.281250059604644
 20
-7.56249976158142
 30
-2.34763616323471
 70
   192
  0
VERTEX
  5
320
330
316
100
AcDbEntity
  8
3D-GENM
100
AcDbVertex
100
AcDbPolyFaceMeshVertex
 10
-2.386766731739043
 20
-7.56249976158142
 30
-2.39134258031845
 70
   192
  0
VERTEX
  5
321
330
316
100
AcDbEntity
  8
3D-GENM
100
AcDbVertex
100
AcDbPolyFaceMeshVertex
 10
-2.499999940395354
 20
-7.56249976158142
 30
-2.406249940395354
 70
   192
  0
VERTEX
  5
322
330
316
100
AcDbEntity
  8
3D-GENM
100
AcDbVertex
100
AcDbPolyFaceMeshVertex
 10
-2.6132333278656
 20
-7.56249976158142
 30
-2.39134258031845
 70
   192
  0
VERTEX
  5
323
330
316
100
AcDbEntity
  8
3D-GENM
100
AcDbVertex
100
AcDbPolyFaceMeshVertex
 10
-2.718749999999999
 20
-7.56249976158142
 30
-2.34763616323471
 70
   192
  0
VERTEX
  5
324
330
316
100
AcDbEntity
  8
3D-GENM
100
AcDbVertex
100
AcDbPolyFaceMeshVertex
 10
-2.80935913324356
 20
-7.56249976158142
 30
-2.278109192848205
 70
   192
  0
VERTEX
  5
325
330
316
100
AcDbEntity
  8
3D-GENM
100
AcDbVertex
100
AcDbPolyFaceMeshVertex
 10
-2.878886103630065
 20
-7.56249976158142
 30
-2.187500059604644
 70
   192
  0
VERTEX
  5
326
330
316
100
AcDbEntity
  8
3D-GENM
100
AcDbVertex
100
AcDbPolyFaceMeshVertex
 10
-2.922592520713805
 20
-7.56249976158142
 30
-2.081983387470244
 70
   192
  0
VERTEX
  5
327
330
316
100
AcDbEntity
  8
3D-GENM
100
AcDbVertex
100
AcDbPolyFaceMeshVertex
 10
-2.937500059604644
 20
-7.56249976158142
 30
-1.968749999999999
 70
   192
  0
VERTEX
  5
328
330
316
100
AcDbEntity
  8
3D-GENM
100
AcDbVertex
100
AcDbPolyFaceMeshVertex
 10
-2.922592520713805
 20
-7.56249976158142
 30
-1.855516612529754
 70
   192
  0
VERTEX
  5
329
330
316
100
AcDbEntity
  8
3D-GENM
100
AcDbVertex
100
AcDbPolyFaceMeshVertex
 10
-2.878886103630065
 20
-7.56249976158142
 30
-1.749999940395355
 70
   192
  0
VERTEX
  5
32A
330
316
100
AcDbEntity
  8
3D-GENM
100
AcDbVertex
100
AcDbPolyFaceMeshVertex
 10
-2.80935913324356
 20
-7.56249976158142
 30
-1.659390807151794
 70
   192
  0
VERTEX
  5
32B
330
316
100
AcDbEntity
  8
3D-GENM
100
AcDbVertex
100
AcDbPolyFaceMeshVertex
 10
-2.718749999999999
 20
-7.56249976158142
 30
-1.589863836765289
 70
   192
  0
VERTEX
  5
32C
330
316
100
AcDbEntity
  8
3D-GENM
100
AcDbVertex
100
AcDbPolyFaceMeshVertex
 10
-2.6132333278656
 20
-7.56249976158142
 30
-1.546157419681548
 70
   192
  0
VERTEX
  5
32D
330
316
100
AcDbEntity
  8
3D-GENM
100
AcDbVertex
100
AcDbPolyFaceMeshVertex
 10
-2.499999940395354
 20
-7.56249976158142
 30
-1.531250059604644
 70
   192
  0
VERTEX
  5
32E
330
316
100
AcDbEntity
  8
3D-GENM
100
AcDbVertex
100
AcDbPolyFaceMeshVertex
 10
-2.386766731739043
 20
-7.56249976158142
 30
-1.546157419681548
 70
   192
  0
VERTEX
  5
32F
330
316
100
AcDbEntity
  8
3D-GENM
100
AcDbVertex
100
AcDbPolyFaceMeshVertex
 10
-2.281250059604644
 20
-7.56249976158142
 30
-1.589863836765289
 70
   192
  0
VERTEX
  5
330
330
316
100
AcDbEntity
  8
3D-GENM
100
AcDbVertex
100
AcDbPolyFaceMeshVertex
 10
-2.190640747547149
 20
-7.56249976158142
 30
-1.659390807151794
 70
   192
  0
VERTEX
  5
331
330
316
100
AcDbEntity
  8
3D-GENM
100
AcDbVertex
100
AcDbPolyFaceMeshVertex
 10
-2.121113955974578
 20
-7.56249976158142
 30
-1.749999940395355
 70
   192
  0
VERTEX
  5
332
330
316
100
AcDbEntity
  8
3D-GENM
100
AcDbVertex
100
AcDbPolyFaceMeshVertex
 10
-2.077407538890838
 20
-7.56249976158142
 30
-1.855516612529754
 70
   192
  0
VERTEX
  5
333
330
316
100
AcDbEntity
  8
3D-GENM
100
AcDbVertex
100
AcDbPolyFaceMeshVertex
 10
2.937500059604644
 20
-7.56249976158142
 30
-1.968749999999999
 70
   192
  0
VERTEX
  5
334
330
316
100
AcDbEntity
  8
3D-GENM
100
AcDbVertex
100
AcDbPolyFaceMeshVertex
 10
2.922592520713805
 20
-7.56249976158142
 30
-2.081983387470244
 70
   192
  0
VERTEX
  5
335
330
316
100
AcDbEntity
  8
3D-GENM
100
AcDbVertex
100
AcDbPolyFaceMeshVertex
 10
2.878886103630065
 20
-7.56249976158142
 30
-2.187500059604644
 70
   192
  0
VERTEX
  5
336
330
316
100
AcDbEntity
  8
3D-GENM
100
AcDbVertex
100
AcDbPolyFaceMeshVertex
 10
2.80935913324356
 20
-7.56249976158142
 30
-2.278109192848205
 70
   192
  0
VERTEX
  5
337
330
316
100
AcDbEntity
  8
3D-GENM
100
AcDbVertex
100
AcDbPolyFaceMeshVertex
 10
2.718749999999999
 20
-7.56249976158142
 30
-2.34763616323471
 70
   192
  0
VERTEX
  5
338
330
316
100
AcDbEntity
  8
3D-GENM
100
AcDbVertex
100
AcDbPolyFaceMeshVertex
 10
2.6132333278656
 20
-7.56249976158142
 30
-2.39134258031845
 70
   192
  0
VERTEX
  5
339
330
316
100
AcDbEntity
  8
3D-GENM
100
AcDbVertex
100
AcDbPolyFaceMeshVertex
 10
2.499999940395354
 20
-7.56249976158142
 30
-2.406249940395354
 70
   192
  0
VERTEX
  5
33A
330
316
100
AcDbEntity
  8
3D-GENM
100
AcDbVertex
100
AcDbPolyFaceMeshVertex
 10
2.386766731739043
 20
-7.56249976158142
 30
-2.39134258031845
 70
   192
  0
VERTEX
  5
33B
330
316
100
AcDbEntity
  8
3D-GENM
100
AcDbVertex
100
AcDbPolyFaceMeshVertex
 10
2.281250059604644
 20
-7.56249976158142
 30
-2.34763616323471
 70
   192
  0
VERTEX
  5
33C
330
316
100
AcDbEntity
  8
3D-GENM
100
AcDbVertex
100
AcDbPolyFaceMeshVertex
 10
2.190640747547149
 20
-7.56249976158142
 30
-2.278109192848205
 70
   192
  0
VERTEX
  5
33D
330
316
100
AcDbEntity
  8
3D-GENM
100
AcDbVertex
100
AcDbPolyFaceMeshVertex
 10
2.121113955974578
 20
-7.56249976158142
 30
-2.187500059604644
 70
   192
  0
VERTEX
  5
33E
330
316
100
AcDbEntity
  8
3D-GENM
100
AcDbVertex
100
AcDbPolyFaceMeshVertex
 10
2.077407538890838
 20
-7.56249976158142
 30
-2.081983387470244
 70
   192
  0
VERTEX
  5
33F
330
316
100
AcDbEntity
  8
3D-GENM
100
AcDbVertex
100
AcDbPolyFaceMeshVertex
 10
2.062499999999999
 20
-7.56249976158142
 30
-1.968749999999999
 70
   192
  0
VERTEX
  5
340
330
316
100
AcDbEntity
  8
3D-GENM
100
AcDbVertex
100
AcDbPolyFaceMeshVertex
 10
2.077407538890838
 20
-7.56249976158142
 30
-1.855516612529754
 70
   192
  0
VERTEX
  5
341
330
316
100
AcDbEntity
  8
3D-GENM
100
AcDbVertex
100
AcDbPolyFaceMeshVertex
 10
2.121113955974578
 20
-7.56249976158142
 30
-1.749999940395355
 70
   192
  0
VERTEX
  5
342
330
316
100
AcDbEntity
  8
3D-GENM
100
AcDbVertex
100
AcDbPolyFaceMeshVertex
 10
2.190640747547149
 20
-7.56249976158142
 30
-1.659390807151794
 70
   192
  0
VERTEX
  5
343
330
316
100
AcDbEntity
  8
3D-GENM
100
AcDbVertex
100
AcDbPolyFaceMeshVertex
 10
2.281250059604644
 20
-7.56249976158142
 30
-1.589863836765289
 70
   192
  0
VERTEX
  5
344
330
316
100
AcDbEntity
  8
3D-GENM
100
AcDbVertex
100
AcDbPolyFaceMeshVertex
 10
2.386766731739043
 20
-7.56249976158142
 30
-1.546157419681548
 70
   192
  0
VERTEX
  5
345
330
316
100
AcDbEntity
  8
3D-GENM
100
AcDbVertex
100
AcDbPolyFaceMeshVertex
 10
2.499999940395354
 20
-7.56249976158142
 30
-1.531250059604644
 70
   192
  0
VERTEX
  5
346
330
316
100
AcDbEntity
  8
3D-GENM
100
AcDbVertex
100
AcDbPolyFaceMeshVertex
 10
2.6132333278656
 20
-7.56249976158142
 30
-1.546157419681548
 70
   192
  0
VERTEX
  5
347
330
316
100
AcDbEntity
  8
3D-GENM
100
AcDbVertex
100
AcDbPolyFaceMeshVertex
 10
2.718749999999999
 20
-7.56249976158142
 30
-1.589863836765289
 70
   192
  0
VERTEX
  5
348
330
316
100
AcDbEntity
  8
3D-GENM
100
AcDbVertex
100
AcDbPolyFaceMeshVertex
 10
2.80935913324356
 20
-7.56249976158142
 30
-1.659390807151794
 70
   192
  0
VERTEX
  5
349
330
316
100
AcDbEntity
  8
3D-GENM
100
AcDbVertex
100
AcDbPolyFaceMeshVertex
 10
2.878886103630065
 20
-7.56249976158142
 30
-1.749999940395355
 70
   192
  0
VERTEX
  5
34A
330
316
100
AcDbEntity
  8
3D-GENM
100
AcDbVertex
100
AcDbPolyFaceMeshVertex
 10
2.922592520713805
 20
-7.56249976158142
 30
-1.855516612529754
 70
   192
  0
VERTEX
  5
34B
330
316
100
AcDbEntity
  8
3D-GENM
100
AcDbFaceRecord
 10
0.0
 20
0.0
 30
0.0
 70
   128
 71
    -2
 72
    21
 73
   -22
  0
VERTEX
  5
34C
330
316
100
AcDbEntity
  8
3D-GENM
100
AcDbFaceRecord
 10
0.0
 20
0.0
 30
0.0
 70
   128
 71
   -21
 72
    -2
 73
    20
  0
VERTEX
  5
34D
330
316
100
AcDbEntity
  8
3D-GENM
100
AcDbFaceRecord
 10
0.0
 20
0.0
 30
0.0
 70
   128
 71
    -2
 72
    22
 73
   -23
  0
VERTEX
  5
34E
330
316
100
AcDbEntity
  8
3D-GENM
100
AcDbFaceRecord
 10
0.0
 20
0.0
 30
0.0
 70
   128
 71
   -24
 72
     1
 73
    -2
 74
    23
  0
VERTEX
  5
34F
330
316
100
AcDbEntity
  8
3D-GENM
100
AcDbFaceRecord
 10
0.0
 20
0.0
 30
0.0
 70
   128
 71
   -46
 72
    24
 73
   -25
 74
    45
  0
VERTEX
  5
350
330
316
100
AcDbEntity
  8
3D-GENM
100
AcDbFaceRecord
 10
0.0
 20
0.0
 30
0.0
 70
   128
 71
    19
 72
   -20
 73
    -2
  0
VERTEX
  5
351
330
316
100
AcDbEntity
  8
3D-GENM
100
AcDbFaceRecord
 10
0.0
 20
0.0
 30
0.0
 70
   128
 71
    18
 72
   -19
 73
     2
 74
    -3
  0
VERTEX
  5
352
330
316
100
AcDbEntity
  8
3D-GENM
100
AcDbFaceRecord
 10
0.0
 20
0.0
 30
0.0
 70
   128
 71
   -44
 72
    26
 73
   -27
 74
    43
  0
VERTEX
  5
353
330
316
100
AcDbEntity
  8
3D-GENM
100
AcDbFaceRecord
 10
0.0
 20
0.0
 30
0.0
 70
   128
 71
    28
 72
    -5
 73
    41
 74
   -42
  0
VERTEX
  5
354
330
316
100
AcDbEntity
  8
3D-GENM
100
AcDbFaceRecord
 10
0.0
 20
0.0
 30
0.0
 70
   128
 71
   -43
 72
    27
 73
   -28
 74
    42
  0
VERTEX
  5
355
330
316
100
AcDbEntity
  8
3D-GENM
100
AcDbFaceRecord
 10
0.0
 20
0.0
 30
0.0
 70
   128
 71
   -45
 72
    25
 73
   -26
 74
    44
  0
VERTEX
  5
356
330
316
100
AcDbEntity
  8
3D-GENM
100
AcDbFaceRecord
 10
0.0
 20
0.0
 30
0.0
 70
   128
 71
    46
 72
   -47
 73
    -1
 74
   -24
  0
VERTEX
  5
357
330
316
100
AcDbEntity
  8
3D-GENM
100
AcDbFaceRecord
 10
0.0
 20
0.0
 30
0.0
 70
   128
 71
    -1
 72
    48
 73
   -49
  0
VERTEX
  5
358
330
316
100
AcDbEntity
  8
3D-GENM
100
AcDbFaceRecord
 10
0.0
 20
0.0
 30
0.0
 70
   128
 71
   -48
 72
    -1
 73
    47
  0
VERTEX
  5
359
330
316
100
AcDbEntity
  8
3D-GENM
100
AcDbFaceRecord
 10
0.0
 20
0.0
 30
0.0
 70
   128
 71
    -1
 72
    49
 73
   -50
  0
VERTEX
  5
35A
330
316
100
AcDbEntity
  8
3D-GENM
100
AcDbFaceRecord
 10
0.0
 20
0.0
 30
0.0
 70
   128
 71
    -1
 72
    51
 73
   -52
 74
     4
  0
VERTEX
  5
35B
330
316
100
AcDbEntity
  8
3D-GENM
100
AcDbFaceRecord
 10
0.0
 20
0.0
 30
0.0
 70
   128
 71
    50
 72
   -51
 73
    -1
  0
VERTEX
  5
35C
330
316
100
AcDbEntity
  8
3D-GENM
100
AcDbFaceRecord
 10
0.0
 20
0.0
 30
0.0
 70
   128
 71
    40
 72
   -41
 73
     5
 74
    -6
  0
VERTEX
  5
35D
330
316
100
AcDbEntity
  8
3D-GENM
100
AcDbFaceRecord
 10
0.0
 20
0.0
 30
0.0
 70
   128
 71
    16
 72
   -17
 73
    -3
  0
VERTEX
  5
35E
330
316
100
AcDbEntity
  8
3D-GENM
100
AcDbFaceRecord
 10
0.0
 20
0.0
 30
0.0
 70
   128
 71
    15
 72
   -16
 73
    -3
  0
VERTEX
  5
35F
330
316
100
AcDbEntity
  8
3D-GENM
100
AcDbFaceRecord
 10
0.0
 20
0.0
 30
0.0
 70
   128
 71
     7
 72
    -8
 73
   -39
  0
VERTEX
  5
360
330
316
100
AcDbEntity
  8
3D-GENM
100
AcDbFaceRecord
 10
0.0
 20
0.0
 30
0.0
 70
   128
 71
     6
 72
    -7
 73
    39
 74
   -40
  0
VERTEX
  5
361
330
316
100
AcDbEntity
  8
3D-GENM
100
AcDbFaceRecord
 10
0.0
 20
0.0
 30
0.0
 70
   128
 71
   -14
 72
    -3
 73
    13
  0
VERTEX
  5
362
330
316
100
AcDbEntity
  8
3D-GENM
100
AcDbFaceRecord
 10
0.0
 20
0.0
 30
0.0
 70
   128
 71
    -3
 72
    14
 73
   -15
  0
VERTEX
  5
363
330
316
100
AcDbEntity
  8
3D-GENM
100
AcDbFaceRecord
 10
0.0
 20
0.0
 30
0.0
 70
   128
 71
   -13
 72
    -3
 73
    12
  0
VERTEX
  5
364
330
316
100
AcDbEntity
  8
3D-GENM
100
AcDbFaceRecord
 10
0.0
 20
0.0
 30
0.0
 70
   128
 71
     9
 72
   -10
 73
    37
 74
   -38
  0
VERTEX
  5
365
330
316
100
AcDbEntity
  8
3D-GENM
100
AcDbFaceRecord
 10
0.0
 20
0.0
 30
0.0
 70
   128
 71
    11
 72
   -12
 73
    -3
  0
VERTEX
  5
366
330
316
100
AcDbEntity
  8
3D-GENM
100
AcDbFaceRecord
 10
0.0
 20
0.0
 30
0.0
 70
   128
 71
    10
 72
   -11
 73
    36
 74
   -37
  0
VERTEX
  5
367
330
316
100
AcDbEntity
  8
3D-GENM
100
AcDbFaceRecord
 10
0.0
 20
0.0
 30
0.0
 70
   128
 71
   -11
 72
    -3
 73
    35
 74
   -36
  0
VERTEX
  5
368
330
316
100
AcDbEntity
  8
3D-GENM
100
AcDbFaceRecord
 10
0.0
 20
0.0
 30
0.0
 70
   128
 71
    17
 72
   -18
 73
    -3
  0
VERTEX
  5
369
330
316
100
AcDbEntity
  8
3D-GENM
100
AcDbFaceRecord
 10
0.0
 20
0.0
 30
0.0
 70
   128
 71
     8
 72
    -9
 73
    38
 74
   -39
  0
VERTEX
  5
36A
330
316
100
AcDbEntity
  8
3D-GENM
100
AcDbFaceRecord
 10
0.0
 20
0.0
 30
0.0
 70
   128
 71
    30
 72
   -31
 73
    -4
  0
VERTEX
  5
36B
330
316
100
AcDbEntity
  8
3D-GENM
100
AcDbFaceRecord
 10
0.0
 20
0.0
 30
0.0
 70
   128
 71
    29
 72
   -30
 73
    -4
  0
VERTEX
  5
36C
330
316
100
AcDbEntity
  8
3D-GENM
100
AcDbFaceRecord
 10
0.0
 20
0.0
 30
0.0
 70
   128
 71
    32
 72
   -33
 73
    -4
  0
VERTEX
  5
36D
330
316
100
AcDbEntity
  8
3D-GENM
100
AcDbFaceRecord
 10
0.0
 20
0.0
 30
0.0
 70
   128
 71
   -34
 72
    -4
 73
    33
  0
VERTEX
  5
36E
330
316
100
AcDbEntity
  8
3D-GENM
100
AcDbFaceRecord
 10
0.0
 20
0.0
 30
0.0
 70
   128
 71
    -4
 72
    34
 73
   -35
 74
     3
  0
VERTEX
  5
36F
330
316
100
AcDbEntity
  8
3D-GENM
100
AcDbFaceRecord
 10
0.0
 20
0.0
 30
0.0
 70
   128
 71
   -32
 72
    -4
 73
    31
  0
VERTEX
  5
370
330
316
100
AcDbEntity
  8
3D-GENM
100
AcDbFaceRecord
 10
0.0
 20
0.0
 30
0.0
 70
   128
 71
   -29
 72
    -4
 73
    52
  0
SEQEND
  5
371
330
316
100
AcDbEntity
  8
3D-GENM
  0
POLYLINE
  5
372
330
7F
100
AcDbEntity
  8
3D-GENM
100
AcDbPolyFaceMesh
 66
     1
 10
0.0
 20
0.0
 30
0.0
 70
    64
 71
    14
 72
     6
1001
REVIT
1002
{
1070
     4
1000
6208
1002
}
  0
VERTEX
  5
373
330
372
100
AcDbEntity
  8
3D-GENM
100
AcDbVertex
100
AcDbPolyFaceMeshVertex
 10
5.249999999999999
 20
-7.312499999999999
 30
-0.0000000000000736
 70
   192
  0
VERTEX
  5
374
330
372
100
AcDbEntity
  8
3D-GENM
100
AcDbVertex
100
AcDbPolyFaceMeshVertex
 10
5.2414813041687
 20
-7.37720489501953
 30
-0.0000000000000736
 70
   192
  0
VERTEX
  5
375
330
372
100
AcDbEntity
  8
3D-GENM
100
AcDbVertex
100
AcDbPolyFaceMeshVertex
 10
5.216506361961363
 20
-7.437500238418578
 30
-0.0000000000000736
 70
   192
  0
VERTEX
  5
376
330
372
100
AcDbEntity
  8
3D-GENM
100
AcDbVertex
100
AcDbPolyFaceMeshVertex
 10
5.176776766777037
 20
-7.489276885986327
 30
-0.0000000000000736
 70
   192
  0
VERTEX
  5
377
330
372
100
AcDbEntity
  8
3D-GENM
100
AcDbVertex
100
AcDbPolyFaceMeshVertex
 10
5.125000119209288
 20
-7.529006481170653
 30
-0.0000000000000736
 70
   192
  0
VERTEX
  5
378
330
372
100
AcDbEntity
  8
3D-GENM
100
AcDbVertex
100
AcDbPolyFaceMeshVertex
 10
5.06470477581024
 20
-7.553981781005858
 30
-0.0000000000000736
 70
   192
  0
VERTEX
  5
379
330
372
100
AcDbEntity
  8
3D-GENM
100
AcDbVertex
100
AcDbPolyFaceMeshVertex
 10
4.999999880790709
 20
-7.56249976158142
 30
-0.0000000000000736
 70
   192
  0
VERTEX
  5
37A
330
372
100
AcDbEntity
  8
3D-GENM
100
AcDbVertex
100
AcDbPolyFaceMeshVertex
 10
4.999999880790709
 20
-7.56249976158142
 30
-2.569323956966399
 70
   192
  0
VERTEX
  5
37B
330
372
100
AcDbEntity
  8
3D-GENM
100
AcDbVertex
100
AcDbPolyFaceMeshVertex
 10
5.06470477581024
 20
-7.553981781005858
 30
-2.569323956966399
 70
   192
  0
VERTEX
  5
37C
330
372
100
AcDbEntity
  8
3D-GENM
100
AcDbVertex
100
AcDbPolyFaceMeshVertex
 10
5.125000119209288
 20
-7.529006481170653
 30
-2.569323956966399
 70
   192
  0
VERTEX
  5
37D
330
372
100
AcDbEntity
  8
3D-GENM
100
AcDbVertex
100
AcDbPolyFaceMeshVertex
 10
5.176776766777037
 20
-7.489276885986327
 30
-2.569323956966399
 70
   192
  0
VERTEX
  5
37E
330
372
100
AcDbEntity
  8
3D-GENM
100
AcDbVertex
100
AcDbPolyFaceMeshVertex
 10
5.216506361961363
 20
-7.437500238418578
 30
-2.569323956966399
 70
   192
  0
VERTEX
  5
37F
330
372
100
AcDbEntity
  8
3D-GENM
100
AcDbVertex
100
AcDbPolyFaceMeshVertex
 10
5.2414813041687
 20
-7.37720489501953
 30
-2.569323956966399
 70
   192
  0
VERTEX
  5
380
330
372
100
AcDbEntity
  8
3D-GENM
100
AcDbVertex
100
AcDbPolyFaceMeshVertex
 10
5.249999999999999
 20
-7.312499999999999
 30
-2.569323956966399
 70
   192
  0
VERTEX
  5
381
330
372
100
AcDbEntity
  8
3D-GENM
100
AcDbFaceRecord
 10
0.0
 20
0.0
 30
0.0
 70
   128
 71
     8
 72
    -9
 73
     6
 74
     7
  0
VERTEX
  5
382
330
372
100
AcDbEntity
  8
3D-GENM
100
AcDbFaceRecord
 10
0.0
 20
0.0
 30
0.0
 70
   128
 71
     9
 72
   -10
 73
     5
 74
    -6
  0
VERTEX
  5
383
330
372
100
AcDbEntity
  8
3D-GENM
100
AcDbFaceRecord
 10
0.0
 20
0.0
 30
0.0
 70
   128
 71
     4
 72
    -5
 73
    10
 74
   -11
  0
VERTEX
  5
384
330
372
100
AcDbEntity
  8
3D-GENM
100
AcDbFaceRecord
 10
0.0
 20
0.0
 30
0.0
 70
   128
 71
    11
 72
   -12
 73
     3
 74
    -4
  0
VERTEX
  5
385
330
372
100
AcDbEntity
  8
3D-GENM
100
AcDbFaceRecord
 10
0.0
 20
0.0
 30
0.0
 70
   128
 71
    12
 72
   -13
 73
     2
 74
    -3
  0
VERTEX
  5
386
330
372
100
AcDbEntity
  8
3D-GENM
100
AcDbFaceRecord
 10
0.0
 20
0.0
 30
0.0
 70
   128
 71
     1
 72
    -2
 73
    13
 74
    14
  0
SEQEND
  5
387
330
372
100
AcDbEntity
  8
3D-GENM
  0
POLYLINE
  5
388
330
7F
100
AcDbEntity
  8
3D-GENM
100
AcDbPolyFaceMesh
 66
     1
 10
0.0
 20
0.0
 30
0.0
 70
    64
 71
    28
 72
    24
1001
REVIT
1002
{
1070
     4
1000
6208
1002
}
  0
VERTEX
  5
389
330
388
100
AcDbEntity
  8
3D-GENM
100
AcDbVertex
100
AcDbPolyFaceMeshVertex
 10
5.249999999999999
 20
7.312499999999999
 30
-0.0000000000000736
 70
   192
  0
VERTEX
  5
38A
330
388
100
AcDbEntity
  8
3D-GENM
100
AcDbVertex
100
AcDbPolyFaceMeshVertex
 10
5.249999999999999
 20
-7.312499999999999
 30
-0.0000000000000736
 70
   192
  0
VERTEX
  5
38B
330
388
100
AcDbEntity
  8
3D-GENM
100
AcDbVertex
100
AcDbPolyFaceMeshVertex
 10
5.249999999999999
 20
-7.312499999999999
 30
-2.569323956966399
 70
   192
  0
VERTEX
  5
38C
330
388
100
AcDbEntity
  8
3D-GENM
100
AcDbVertex
100
AcDbPolyFaceMeshVertex
 10
5.249999999999999
 20
7.312499999999999
 30
-2.569323956966399
 70
   192
  0
VERTEX
  5
38D
330
388
100
AcDbEntity
  8
3D-GENM
100
AcDbVertex
100
AcDbPolyFaceMeshVertex
 10
5.249999999999999
 20
-2.124999940395354
 30
-1.968749999999999
 70
   192
  0
VERTEX
  5
38E
330
388
100
AcDbEntity
  8
3D-GENM
100
AcDbVertex
100
AcDbPolyFaceMeshVertex
 10
5.249999999999999
 20
-2.139907479286193
 30
-2.081983387470244
 70
   192
  0
VERTEX
  5
38F
330
388
100
AcDbEntity
  8
3D-GENM
100
AcDbVertex
100
AcDbPolyFaceMeshVertex
 10
5.249999999999999
 20
-2.183613896369933
 30
-2.187500059604644
 70
   192
  0
VERTEX
  5
390
330
388
100
AcDbEntity
  8
3D-GENM
100
AcDbVertex
100
AcDbPolyFaceMeshVertex
 10
5.249999999999999
 20
-2.253140866756438
 30
-2.278109192848205
 70
   192
  0
VERTEX
  5
391
330
388
100
AcDbEntity
  8
3D-GENM
100
AcDbVertex
100
AcDbPolyFaceMeshVertex
 10
5.249999999999999
 20
-2.343749999999999
 30
-2.34763616323471
 70
   192
  0
VERTEX
  5
392
330
388
100
AcDbEntity
  8
3D-GENM
100
AcDbVertex
100
AcDbPolyFaceMeshVertex
 10
5.249999999999999
 20
-2.449266672134398
 30
-2.39134258031845
 70
   192
  0
VERTEX
  5
393
330
388
100
AcDbEntity
  8
3D-GENM
100
AcDbVertex
100
AcDbPolyFaceMeshVertex
 10
5.249999999999999
 20
-2.562500059604644
 30
-2.406249940395354
 70
   192
  0
VERTEX
  5
394
330
388
100
AcDbEntity
  8
3D-GENM
100
AcDbVertex
100
AcDbPolyFaceMeshVertex
 10
5.249999999999999
 20
-2.675733268260955
 30
-2.39134258031845
 70
   192
  0
VERTEX
  5
395
330
388
100
AcDbEntity
  8
3D-GENM
100
AcDbVertex
100
AcDbPolyFaceMeshVertex
 10
5.249999999999999
 20
-2.781249940395354
 30
-2.34763616323471
 70
   192
  0
VERTEX
  5
396
330
388
100
AcDbEntity
  8
3D-GENM
100
AcDbVertex
100
AcDbPolyFaceMeshVertex
 10
5.249999999999999
 20
-2.871859252452849
 30
-2.278109192848205
 70
   192
  0
VERTEX
  5
397
330
388
100
AcDbEntity
  8
3D-GENM
100
AcDbVertex
100
AcDbPolyFaceMeshVertex
 10
5.249999999999999
 20
-2.94138604402542
 30
-2.187500059604644
 70
   192
  0
VERTEX
  5
398
330
388
100
AcDbEntity
  8
3D-GENM
100
AcDbVertex
100
AcDbPolyFaceMeshVertex
 10
5.249999999999999
 20
-2.985092461109161
 30
-2.081983387470244
 70
   192
  0
VERTEX
  5
399
330
388
100
AcDbEntity
  8
3D-GENM
100
AcDbVertex
100
AcDbPolyFaceMeshVertex
 10
5.249999999999999
 20
-2.999999999999999
 30
-1.968749999999999
 70
   192
  0
VERTEX
  5
39A
330
388
100
AcDbEntity
  8
3D-GENM
100
AcDbVertex
100
AcDbPolyFaceMeshVertex
 10
5.249999999999999
 20
-2.985092461109161
 30
-1.855516612529754
 70
   192
  0
VERTEX
  5
39B
330
388
100
AcDbEntity
  8
3D-GENM
100
AcDbVertex
100
AcDbPolyFaceMeshVertex
 10
5.249999999999999
 20
-2.94138604402542
 30
-1.749999940395355
 70
   192
  0
VERTEX
  5
39C
330
388
100
AcDbEntity
  8
3D-GENM
100
AcDbVertex
100
AcDbPolyFaceMeshVertex
 10
5.249999999999999
 20
-2.871859252452849
 30
-1.659390807151794
 70
   192
  0
VERTEX
  5
39D
330
388
100
AcDbEntity
  8
3D-GENM
100
AcDbVertex
100
AcDbPolyFaceMeshVertex
 10
5.249999999999999
 20
-2.781249940395354
 30
-1.589863836765289
 70
   192
  0
VERTEX
  5
39E
330
388
100
AcDbEntity
  8
3D-GENM
100
AcDbVertex
100
AcDbPolyFaceMeshVertex
 10
5.249999999999999
 20
-2.675733268260955
 30
-1.546157419681548
 70
   192
  0
VERTEX
  5
39F
330
388
100
AcDbEntity
  8
3D-GENM
100
AcDbVertex
100
AcDbPolyFaceMeshVertex
 10
5.249999999999999
 20
-2.562500059604644
 30
-1.531250059604644
 70
   192
  0
VERTEX
  5
3A0
330
388
100
AcDbEntity
  8
3D-GENM
100
AcDbVertex
100
AcDbPolyFaceMeshVertex
 10
5.249999999999999
 20
-2.449266672134398
 30
-1.546157419681548
 70
   192
  0
VERTEX
  5
3A1
330
388
100
AcDbEntity
  8
3D-GENM
100
AcDbVertex
100
AcDbPolyFaceMeshVertex
 10
5.249999999999999
 20
-2.343749999999999
 30
-1.589863836765289
 70
   192
  0
VERTEX
  5
3A2
330
388
100
AcDbEntity
  8
3D-GENM
100
AcDbVertex
100
AcDbPolyFaceMeshVertex
 10
5.249999999999999
 20
-2.253140866756438
 30
-1.659390807151794
 70
   192
  0
VERTEX
  5
3A3
330
388
100
AcDbEntity
  8
3D-GENM
100
AcDbVertex
100
AcDbPolyFaceMeshVertex
 10
5.249999999999999
 20
-2.183613896369933
 30
-1.749999940395355
 70
   192
  0
VERTEX
  5
3A4
330
388
100
AcDbEntity
  8
3D-GENM
100
AcDbVertex
100
AcDbPolyFaceMeshVertex
 10
5.249999999999999
 20
-2.139907479286193
 30
-1.855516612529754
 70
   192
  0
VERTEX
  5
3A5
330
388
100
AcDbEntity
  8
3D-GENM
100
AcDbFaceRecord
 10
0.0
 20
0.0
 30
0.0
 70
   128
 71
    -2
 72
    22
 73
   -23
  0
VERTEX
  5
3A6
330
388
100
AcDbEntity
  8
3D-GENM
100
AcDbFaceRecord
 10
0.0
 20
0.0
 30
0.0
 70
   128
 71
   -22
 72
    -2
 73
    21
  0
VERTEX
  5
3A7
330
388
100
AcDbEntity
  8
3D-GENM
100
AcDbFaceRecord
 10
0.0
 20
0.0
 30
0.0
 70
   128
 71
    -2
 72
    23
 73
   -24
 74
     1
  0
VERTEX
  5
3A8
330
388
100
AcDbEntity
  8
3D-GENM
100
AcDbFaceRecord
 10
0.0
 20
0.0
 30
0.0
 70
   128
 71
    18
 72
   -19
 73
     2
 74
    -3
  0
VERTEX
  5
3A9
330
388
100
AcDbEntity
  8
3D-GENM
100
AcDbFaceRecord
 10
0.0
 20
0.0
 30
0.0
 70
   128
 71
    20
 72
   -21
 73
    -2
  0
VERTEX
  5
3AA
330
388
100
AcDbEntity
  8
3D-GENM
100
AcDbFaceRecord
 10
0.0
 20
0.0
 30
0.0
 70
   128
 71
    19
 72
   -20
 73
    -2
  0
VERTEX
  5
3AB
330
388
100
AcDbEntity
  8
3D-GENM
100
AcDbFaceRecord
 10
0.0
 20
0.0
 30
0.0
 70
   128
 71
    -1
 72
    24
 73
   -25
  0
VERTEX
  5
3AC
330
388
100
AcDbEntity
  8
3D-GENM
100
AcDbFaceRecord
 10
0.0
 20
0.0
 30
0.0
 70
   128
 71
    -1
 72
    25
 73
   -26
  0
VERTEX
  5
3AD
330
388
100
AcDbEntity
  8
3D-GENM
100
AcDbFaceRecord
 10
0.0
 20
0.0
 30
0.0
 70
   128
 71
    26
 72
   -27
 73
    -1
  0
VERTEX
  5
3AE
330
388
100
AcDbEntity
  8
3D-GENM
100
AcDbFaceRecord
 10
0.0
 20
0.0
 30
0.0
 70
   128
 71
    -1
 72
    28
 73
    -5
 74
     4
  0
VERTEX
  5
3AF
330
388
100
AcDbEntity
  8
3D-GENM
100
AcDbFaceRecord
 10
0.0
 20
0.0
 30
0.0
 70
   128
 71
    27
 72
   -28
 73
    -1
  0
VERTEX
  5
3B0
330
388
100
AcDbEntity
  8
3D-GENM
100
AcDbFaceRecord
 10
0.0
 20
0.0
 30
0.0
 70
   128
 71
    16
 72
   -17
 73
    -3
  0
VERTEX
  5
3B1
330
388
100
AcDbEntity
  8
3D-GENM
100
AcDbFaceRecord
 10
0.0
 20
0.0
 30
0.0
 70
   128
 71
    15
 72
   -16
 73
    -3
  0
VERTEX
  5
3B2
330
388
100
AcDbEntity
  8
3D-GENM
100
AcDbFaceRecord
 10
0.0
 20
0.0
 30
0.0
 70
   128
 71
   -14
 72
    -3
 73
    13
  0
VERTEX
  5
3B3
330
388
100
AcDbEntity
  8
3D-GENM
100
AcDbFaceRecord
 10
0.0
 20
0.0
 30
0.0
 70
   128
 71
    -3
 72
    14
 73
   -15
  0
VERTEX
  5
3B4
330
388
100
AcDbEntity
  8
3D-GENM
100
AcDbFaceRecord
 10
0.0
 20
0.0
 30
0.0
 70
   128
 71
    12
 72
   -13
 73
    -3
  0
VERTEX
  5
3B5
330
388
100
AcDbEntity
  8
3D-GENM
100
AcDbFaceRecord
 10
0.0
 20
0.0
 30
0.0
 70
   128
 71
    11
 72
   -12
 73
     3
 74
    -4
  0
VERTEX
  5
3B6
330
388
100
AcDbEntity
  8
3D-GENM
100
AcDbFaceRecord
 10
0.0
 20
0.0
 30
0.0
 70
   128
 71
    17
 72
   -18
 73
    -3
  0
VERTEX
  5
3B7
330
388
100
AcDbEntity
  8
3D-GENM
100
AcDbFaceRecord
 10
0.0
 20
0.0
 30
0.0
 70
   128
 71
     7
 72
    -8
 73
    -4
  0
VERTEX
  5
3B8
330
388
100
AcDbEntity
  8
3D-GENM
100
AcDbFaceRecord
 10
0.0
 20
0.0
 30
0.0
 70
   128
 71
     6
 72
    -7
 73
    -4
  0
VERTEX
  5
3B9
330
388
100
AcDbEntity
  8
3D-GENM
100
AcDbFaceRecord
 10
0.0
 20
0.0
 30
0.0
 70
   128
 71
    10
 72
   -11
 73
    -4
  0
VERTEX
  5
3BA
330
388
100
AcDbEntity
  8
3D-GENM
100
AcDbFaceRecord
 10
0.0
 20
0.0
 30
0.0
 70
   128
 71
    -9
 72
    -4
 73
     8
  0
VERTEX
  5
3BB
330
388
100
AcDbEntity
  8
3D-GENM
100
AcDbFaceRecord
 10
0.0
 20
0.0
 30
0.0
 70
   128
 71
    -4
 72
     9
 73
   -10
  0
VERTEX
  5
3BC
330
388
100
AcDbEntity
  8
3D-GENM
100
AcDbFaceRecord
 10
0.0
 20
0.0
 30
0.0
 70
   128
 71
    -4
 72
     5
 73
    -6
  0
SEQEND
  5
3BD
330
388
100
AcDbEntity
  8
3D-GENM
  0
POLYLINE
  5
3BE
330
7F
100
AcDbEntity
  8
3D-GENM
100
AcDbPolyFaceMesh
 66
     1
 10
0.0
 20
0.0
 30
0.0
 70
    64
 71
    14
 72
     6
1001
REVIT
1002
{
1070
     4
1000
6208
1002
}
  0
VERTEX
  5
3BF
330
3BE
100
AcDbEntity
  8
3D-GENM
100
AcDbVertex
100
AcDbPolyFaceMeshVertex
 10
4.999999880790709
 20
7.56249976158142
 30
-0.0000000000000736
 70
   192
  0
VERTEX
  5
3C0
330
3BE
100
AcDbEntity
  8
3D-GENM
100
AcDbVertex
100
AcDbPolyFaceMeshVertex
 10
5.06470477581024
 20
7.553981781005858
 30
-0.0000000000000736
 70
   192
  0
VERTEX
  5
3C1
330
3BE
100
AcDbEntity
  8
3D-GENM
100
AcDbVertex
100
AcDbPolyFaceMeshVertex
 10
5.125000119209288
 20
7.529006481170653
 30
-0.0000000000000736
 70
   192
  0
VERTEX
  5
3C2
330
3BE
100
AcDbEntity
  8
3D-GENM
100
AcDbVertex
100
AcDbPolyFaceMeshVertex
 10
5.176776766777037
 20
7.489276885986327
 30
-0.0000000000000736
 70
   192
  0
VERTEX
  5
3C3
330
3BE
100
AcDbEntity
  8
3D-GENM
100
AcDbVertex
100
AcDbPolyFaceMeshVertex
 10
5.216506361961363
 20
7.437500238418578
 30
-0.0000000000000736
 70
   192
  0
VERTEX
  5
3C4
330
3BE
100
AcDbEntity
  8
3D-GENM
100
AcDbVertex
100
AcDbPolyFaceMeshVertex
 10
5.2414813041687
 20
7.37720489501953
 30
-0.0000000000000736
 70
   192
  0
VERTEX
  5
3C5
330
3BE
100
AcDbEntity
  8
3D-GENM
100
AcDbVertex
100
AcDbPolyFaceMeshVertex
 10
5.249999999999999
 20
7.312499999999999
 30
-0.0000000000000736
 70
   192
  0
VERTEX
  5
3C6
330
3BE
100
AcDbEntity
  8
3D-GENM
100
AcDbVertex
100
AcDbPolyFaceMeshVertex
 10
5.249999999999999
 20
7.312499999999999
 30
-2.569323956966399
 70
   192
  0
VERTEX
  5
3C7
330
3BE
100
AcDbEntity
  8
3D-GENM
100
AcDbVertex
100
AcDbPolyFaceMeshVertex
 10
5.2414813041687
 20
7.37720489501953
 30
-2.569323956966399
 70
   192
  0
VERTEX
  5
3C8
330
3BE
100
AcDbEntity
  8
3D-GENM
100
AcDbVertex
100
AcDbPolyFaceMeshVertex
 10
5.216506361961363
 20
7.437500238418578
 30
-2.569323956966399
 70
   192
  0
VERTEX
  5
3C9
330
3BE
100
AcDbEntity
  8
3D-GENM
100
AcDbVertex
100
AcDbPolyFaceMeshVertex
 10
5.176776766777037
 20
7.489276885986327
 30
-2.569323956966399
 70
   192
  0
VERTEX
  5
3CA
330
3BE
100
AcDbEntity
  8
3D-GENM
100
AcDbVertex
100
AcDbPolyFaceMeshVertex
 10
5.125000119209288
 20
7.529006481170653
 30
-2.569323956966399
 70
   192
  0
VERTEX
  5
3CB
330
3BE
100
AcDbEntity
  8
3D-GENM
100
AcDbVertex
100
AcDbPolyFaceMeshVertex
 10
5.06470477581024
 20
7.553981781005858
 30
-2.569323956966399
 70
   192
  0
VERTEX
  5
3CC
330
3BE
100
AcDbEntity
  8
3D-GENM
100
AcDbVertex
100
AcDbPolyFaceMeshVertex
 10
4.999999880790709
 20
7.56249976158142
 30
-2.569323956966399
 70
   192
  0
VERTEX
  5
3CD
330
3BE
100
AcDbEntity
  8
3D-GENM
100
AcDbFaceRecord
 10
0.0
 20
0.0
 30
0.0
 70
   128
 71
     8
 72
    -9
 73
     6
 74
     7
  0
VERTEX
  5
3CE
330
3BE
100
AcDbEntity
  8
3D-GENM
100
AcDbFaceRecord
 10
0.0
 20
0.0
 30
0.0
 70
   128
 71
     9
 72
   -10
 73
     5
 74
    -6
  0
VERTEX
  5
3CF
330
3BE
100
AcDbEntity
  8
3D-GENM
100
AcDbFaceRecord
 10
0.0
 20
0.0
 30
0.0
 70
   128
 71
     4
 72
    -5
 73
    10
 74
   -11
  0
VERTEX
  5
3D0
330
3BE
100
AcDbEntity
  8
3D-GENM
100
AcDbFaceRecord
 10
0.0
 20
0.0
 30
0.0
 70
   128
 71
    11
 72
   -12
 73
     3
 74
    -4
  0
VERTEX
  5
3D1
330
3BE
100
AcDbEntity
  8
3D-GENM
100
AcDbFaceRecord
 10
0.0
 20
0.0
 30
0.0
 70
   128
 71
    12
 72
   -13
 73
     2
 74
    -3
  0
VERTEX
  5
3D2
330
3BE
100
AcDbEntity
  8
3D-GENM
100
AcDbFaceRecord
 10
0.0
 20
0.0
 30
0.0
 70
   128
 71
    14
 72
     1
 73
    -2
 74
    13
  0
SEQEND
  5
3D3
330
3BE
100
AcDbEntity
  8
3D-GENM
  0
POLYLINE
  5
3D4
330
7F
100
AcDbEntity
  8
3D-GENM
100
AcDbPolyFaceMesh
 66
     1
 10
0.0
 20
0.0
 30
0.0
 70
    64
 71
     4
 72
     1
1001
REVIT
1002
{
1070
     4
1000
6208
1002
}
  0
VERTEX
  5
3D5
330
3D4
100
AcDbEntity
  8
3D-GENM
100
AcDbVertex
100
AcDbPolyFaceMeshVertex
 10
3.937499999999999
 20
0.8895238637924192
 30
-0.0000000000000736
 70
   192
  0
VERTEX
  5
3D6
330
3D4
100
AcDbEntity
  8
3D-GENM
100
AcDbVertex
100
AcDbPolyFaceMeshVertex
 10
-3.937499999999999
 20
0.8895238637924192
 30
-0.0000000000000736
 70
   192
  0
VERTEX
  5
3D7
330
3D4
100
AcDbEntity
  8
3D-GENM
100
AcDbVertex
100
AcDbPolyFaceMeshVertex
 10
-3.937499999999999
 20
0.8895238637924192
 30
-2.569323956966399
 70
   192
  0
VERTEX
  5
3D8
330
3D4
100
AcDbEntity
  8
3D-GENM
100
AcDbVertex
100
AcDbPolyFaceMeshVertex
 10
3.937499999999999
 20
0.8895238637924192
 30
-2.569323956966399
 70
   192
  0
VERTEX
  5
3D9
330
3D4
100
AcDbEntity
  8
3D-GENM
100
AcDbFaceRecord
 10
0.0
 20
0.0
 30
0.0
 70
   128
 71
     1
 72
     2
 73
     3
 74
     4
  0
SEQEND
  5
3DA
330
3D4
100
AcDbEntity
  8
3D-GENM
  0
POLYLINE
  5
3DB
330
7F
100
AcDbEntity
  8
3D-GENM
100
AcDbPolyFaceMesh
 66
     1
 10
0.0
 20
0.0
 30
0.0
 70
    64
 71
     4
 72
     1
1001
REVIT
1002
{
1070
     4
1000
6208
1002
}
  0
VERTEX
  5
3DC
330
3DB
100
AcDbEntity
  8
3D-GENM
100
AcDbVertex
100
AcDbPolyFaceMeshVertex
 10
3.937499999999999
 20
-6.110476255416869
 30
-0.0000000000000736
 70
   192
  0
VERTEX
  5
3DD
330
3DB
100
AcDbEntity
  8
3D-GENM
100
AcDbVertex
100
AcDbPolyFaceMeshVertex
 10
3.937499999999999
 20
0.8895238637924192
 30
-0.0000000000000736
 70
   192
  0
VERTEX
  5
3DE
330
3DB
100
AcDbEntity
  8
3D-GENM
100
AcDbVertex
100
AcDbPolyFaceMeshVertex
 10
3.937499999999999
 20
0.8895238637924192
 30
-2.569323956966399
 70
   192
  0
VERTEX
  5
3DF
330
3DB
100
AcDbEntity
  8
3D-GENM
100
AcDbVertex
100
AcDbPolyFaceMeshVertex
 10
3.937499999999999
 20
-6.110476255416869
 30
-2.569323956966399
 70
   192
  0
VERTEX
  5
3E0
330
3DB
100
AcDbEntity
  8
3D-GENM
100
AcDbFaceRecord
 10
0.0
 20
0.0
 30
0.0
 70
   128
 71
     1
 72
     2
 73
     3
 74
     4
  0
SEQEND
  5
3E1
330
3DB
100
AcDbEntity
  8
3D-GENM
  0
POLYLINE
  5
3E2
330
7F
100
AcDbEntity
  8
3D-GENM
100
AcDbPolyFaceMesh
 66
     1
 10
0.0
 20
0.0
 30
0.0
 70
    64
 71
     4
 72
     1
1001
REVIT
1002
{
1070
     4
1000
6208
1002
}
  0
VERTEX
  5
3E3
330
3E2
100
AcDbEntity
  8
3D-GENM
100
AcDbVertex
100
AcDbPolyFaceMeshVertex
 10
-3.937499999999999
 20
-6.110476255416869
 30
-0.0000000000000736
 70
   192
  0
VERTEX
  5
3E4
330
3E2
100
AcDbEntity
  8
3D-GENM
100
AcDbVertex
100
AcDbPolyFaceMeshVertex
 10
3.937499999999999
 20
-6.110476255416869
 30
-0.0000000000000736
 70
   192
  0
VERTEX
  5
3E5
330
3E2
100
AcDbEntity
  8
3D-GENM
100
AcDbVertex
100
AcDbPolyFaceMeshVertex
 10
3.937499999999999
 20
-6.110476255416869
 30
-2.569323956966399
 70
   192
  0
VERTEX
  5
3E6
330
3E2
100
AcDbEntity
  8
3D-GENM
100
AcDbVertex
100
AcDbPolyFaceMeshVertex
 10
-3.937499999999999
 20
-6.110476255416869
 30
-2.569323956966399
 70
   192
  0
VERTEX
  5
3E7
330
3E2
100
AcDbEntity
  8
3D-GENM
100
AcDbFaceRecord
 10
0.0
 20
0.0
 30
0.0
 70
   128
 71
     1
 72
     2
 73
     3
 74
     4
  0
SEQEND
  5
3E8
330
3E2
100
AcDbEntity
  8
3D-GENM
  0
POLYLINE
  5
3E9
330
7F
100
AcDbEntity
  8
3D-GENM
100
AcDbPolyFaceMesh
 66
     1
 10
0.0
 20
0.0
 30
0.0
 70
    64
 71
     4
 72
     1
1001
REVIT
1002
{
1070
     4
1000
6208
1002
}
  0
VERTEX
  5
3EA
330
3E9
100
AcDbEntity
  8
3D-GENM
100
AcDbVertex
100
AcDbPolyFaceMeshVertex
 10
-3.937499999999999
 20
0.8895238637924192
 30
-0.0000000000000736
 70
   192
  0
VERTEX
  5
3EB
330
3E9
100
AcDbEntity
  8
3D-GENM
100
AcDbVertex
100
AcDbPolyFaceMeshVertex
 10
-3.937499999999999
 20
-6.110476255416869
 30
-0.0000000000000736
 70
   192
  0
VERTEX
  5
3EC
330
3E9
100
AcDbEntity
  8
3D-GENM
100
AcDbVertex
100
AcDbPolyFaceMeshVertex
 10
-3.937499999999999
 20
-6.110476255416869
 30
-2.569323956966399
 70
   192
  0
VERTEX
  5
3ED
330
3E9
100
AcDbEntity
  8
3D-GENM
100
AcDbVertex
100
AcDbPolyFaceMeshVertex
 10
-3.937499999999999
 20
0.8895238637924192
 30
-2.569323956966399
 70
   192
  0
VERTEX
  5
3EE
330
3E9
100
AcDbEntity
  8
3D-GENM
100
AcDbFaceRecord
 10
0.0
 20
0.0
 30
0.0
 70
   128
 71
     1
 72
     2
 73
     3
 74
     4
  0
SEQEND
  5
3EF
330
3E9
100
AcDbEntity
  8
3D-GENM
  0
POLYLINE
  5
3F0
330
7F
100
AcDbEntity
  8
3D-GENM
100
AcDbPolyFaceMesh
 66
     1
 10
0.0
 20
0.0
 30
0.0
 70
    64
 71
    48
 72
    26
1001
REVIT
1002
{
1070
     4
1000
6208
1002
}
  0
VERTEX
  5
3F1
330
3F0
100
AcDbEntity
  8
3D-GENM
100
AcDbVertex
100
AcDbPolyFaceMeshVertex
 10
-2.922592520713805
 20
-7.205150127410887
 30
-1.855516612529754
 70
   192
  0
VERTEX
  5
3F2
330
3F0
100
AcDbEntity
  8
3D-GENM
100
AcDbVertex
100
AcDbPolyFaceMeshVertex
 10
-2.878886103630065
 20
-7.205150127410887
 30
-1.749999940395355
 70
   192
  0
VERTEX
  5
3F3
330
3F0
100
AcDbEntity
  8
3D-GENM
100
AcDbVertex
100
AcDbPolyFaceMeshVertex
 10
-2.80935913324356
 20
-7.205150127410887
 30
-1.659390807151794
 70
   192
  0
VERTEX
  5
3F4
330
3F0
100
AcDbEntity
  8
3D-GENM
100
AcDbVertex
100
AcDbPolyFaceMeshVertex
 10
-2.718749999999999
 20
-7.205150127410887
 30
-1.589863836765289
 70
   192
  0
VERTEX
  5
3F5
330
3F0
100
AcDbEntity
  8
3D-GENM
100
AcDbVertex
100
AcDbPolyFaceMeshVertex
 10
-2.6132333278656
 20
-7.205150127410887
 30
-1.546157419681548
 70
   192
  0
VERTEX
  5
3F6
330
3F0
100
AcDbEntity
  8
3D-GENM
100
AcDbVertex
100
AcDbPolyFaceMeshVertex
 10
-2.499999940395354
 20
-7.205150127410887
 30
-1.531250059604644
 70
   192
  0
VERTEX
  5
3F7
330
3F0
100
AcDbEntity
  8
3D-GENM
100
AcDbVertex
100
AcDbPolyFaceMeshVertex
 10
-2.386766731739043
 20
-7.205150127410887
 30
-1.546157419681548
 70
   192
  0
VERTEX
  5
3F8
330
3F0
100
AcDbEntity
  8
3D-GENM
100
AcDbVertex
100
AcDbPolyFaceMeshVertex
 10
-2.281250059604644
 20
-7.205150127410887
 30
-1.589863836765289
 70
   192
  0
VERTEX
  5
3F9
330
3F0
100
AcDbEntity
  8
3D-GENM
100
AcDbVertex
100
AcDbPolyFaceMeshVertex
 10
-2.190640747547149
 20
-7.205150127410887
 30
-1.659390807151794
 70
   192
  0
VERTEX
  5
3FA
330
3F0
100
AcDbEntity
  8
3D-GENM
100
AcDbVertex
100
AcDbPolyFaceMeshVertex
 10
-2.121113955974578
 20
-7.205150127410887
 30
-1.749999940395355
 70
   192
  0
VERTEX
  5
3FB
330
3F0
100
AcDbEntity
  8
3D-GENM
100
AcDbVertex
100
AcDbPolyFaceMeshVertex
 10
-2.077407538890838
 20
-7.205150127410887
 30
-1.855516612529754
 70
   192
  0
VERTEX
  5
3FC
330
3F0
100
AcDbEntity
  8
3D-GENM
100
AcDbVertex
100
AcDbPolyFaceMeshVertex
 10
-2.062499999999999
 20
-7.205150127410887
 30
-1.968749999999999
 70
   192
  0
VERTEX
  5
3FD
330
3F0
100
AcDbEntity
  8
3D-GENM
100
AcDbVertex
100
AcDbPolyFaceMeshVertex
 10
-2.077407538890838
 20
-7.205150127410887
 30
-2.081983387470244
 70
   192
  0
VERTEX
  5
3FE
330
3F0
100
AcDbEntity
  8
3D-GENM
100
AcDbVertex
100
AcDbPolyFaceMeshVertex
 10
-2.121113955974578
 20
-7.205150127410887
 30
-2.187500059604644
 70
   192
  0
VERTEX
  5
3FF
330
3F0
100
AcDbEntity
  8
3D-GENM
100
AcDbVertex
100
AcDbPolyFaceMeshVertex
 10
-2.190640747547149
 20
-7.205150127410887
 30
-2.278109192848205
 70
   192
  0
VERTEX
  5
400
330
3F0
100
AcDbEntity
  8
3D-GENM
100
AcDbVertex
100
AcDbPolyFaceMeshVertex
 10
-2.281250059604644
 20
-7.205150127410887
 30
-2.34763616323471
 70
   192
  0
VERTEX
  5
401
330
3F0
100
AcDbEntity
  8
3D-GENM
100
AcDbVertex
100
AcDbPolyFaceMeshVertex
 10
-2.386766731739043
 20
-7.205150127410887
 30
-2.39134258031845
 70
   192
  0
VERTEX
  5
402
330
3F0
100
AcDbEntity
  8
3D-GENM
100
AcDbVertex
100
AcDbPolyFaceMeshVertex
 10
-2.499999940395354
 20
-7.205150127410887
 30
-2.406249940395354
 70
   192
  0
VERTEX
  5
403
330
3F0
100
AcDbEntity
  8
3D-GENM
100
AcDbVertex
100
AcDbPolyFaceMeshVertex
 10
-2.6132333278656
 20
-7.205150127410887
 30
-2.39134258031845
 70
   192
  0
VERTEX
  5
404
330
3F0
100
AcDbEntity
  8
3D-GENM
100
AcDbVertex
100
AcDbPolyFaceMeshVertex
 10
-2.718749999999999
 20
-7.205150127410887
 30
-2.34763616323471
 70
   192
  0
VERTEX
  5
405
330
3F0
100
AcDbEntity
  8
3D-GENM
100
AcDbVertex
100
AcDbPolyFaceMeshVertex
 10
-2.80935913324356
 20
-7.205150127410887
 30
-2.278109192848205
 70
   192
  0
VERTEX
  5
406
330
3F0
100
AcDbEntity
  8
3D-GENM
100
AcDbVertex
100
AcDbPolyFaceMeshVertex
 10
-2.878886103630065
 20
-7.205150127410887
 30
-2.187500059604644
 70
   192
  0
VERTEX
  5
407
330
3F0
100
AcDbEntity
  8
3D-GENM
100
AcDbVertex
100
AcDbPolyFaceMeshVertex
 10
-2.922592520713805
 20
-7.205150127410887
 30
-2.081983387470244
 70
   192
  0
VERTEX
  5
408
330
3F0
100
AcDbEntity
  8
3D-GENM
100
AcDbVertex
100
AcDbPolyFaceMeshVertex
 10
-2.937500059604644
 20
-7.205150127410887
 30
-1.968749999999999
 70
   192
  0
VERTEX
  5
409
330
3F0
100
AcDbEntity
  8
3D-GENM
100
AcDbVertex
100
AcDbPolyFaceMeshVertex
 10
2.077407538890838
 20
-7.205150127410887
 30
-1.855516612529754
 70
   192
  0
VERTEX
  5
40A
330
3F0
100
AcDbEntity
  8
3D-GENM
100
AcDbVertex
100
AcDbPolyFaceMeshVertex
 10
2.121113955974578
 20
-7.205150127410887
 30
-1.749999940395355
 70
   192
  0
VERTEX
  5
40B
330
3F0
100
AcDbEntity
  8
3D-GENM
100
AcDbVertex
100
AcDbPolyFaceMeshVertex
 10
2.190640747547149
 20
-7.205150127410887
 30
-1.659390807151794
 70
   192
  0
VERTEX
  5
40C
330
3F0
100
AcDbEntity
  8
3D-GENM
100
AcDbVertex
100
AcDbPolyFaceMeshVertex
 10
2.281250059604644
 20
-7.205150127410887
 30
-1.589863836765289
 70
   192
  0
VERTEX
  5
40D
330
3F0
100
AcDbEntity
  8
3D-GENM
100
AcDbVertex
100
AcDbPolyFaceMeshVertex
 10
2.386766731739043
 20
-7.205150127410887
 30
-1.546157419681548
 70
   192
  0
VERTEX
  5
40E
330
3F0
100
AcDbEntity
  8
3D-GENM
100
AcDbVertex
100
AcDbPolyFaceMeshVertex
 10
2.499999940395354
 20
-7.205150127410887
 30
-1.531250059604644
 70
   192
  0
VERTEX
  5
40F
330
3F0
100
AcDbEntity
  8
3D-GENM
100
AcDbVertex
100
AcDbPolyFaceMeshVertex
 10
2.6132333278656
 20
-7.205150127410887
 30
-1.546157419681548
 70
   192
  0
VERTEX
  5
410
330
3F0
100
AcDbEntity
  8
3D-GENM
100
AcDbVertex
100
AcDbPolyFaceMeshVertex
 10
2.718749999999999
 20
-7.205150127410887
 30
-1.589863836765289
 70
   192
  0
VERTEX
  5
411
330
3F0
100
AcDbEntity
  8
3D-GENM
100
AcDbVertex
100
AcDbPolyFaceMeshVertex
 10
2.80935913324356
 20
-7.205150127410887
 30
-1.659390807151794
 70
   192
  0
VERTEX
  5
412
330
3F0
100
AcDbEntity
  8
3D-GENM
100
AcDbVertex
100
AcDbPolyFaceMeshVertex
 10
2.878886103630065
 20
-7.205150127410887
 30
-1.749999940395355
 70
   192
  0
VERTEX
  5
413
330
3F0
100
AcDbEntity
  8
3D-GENM
100
AcDbVertex
100
AcDbPolyFaceMeshVertex
 10
2.922592520713805
 20
-7.205150127410887
 30
-1.855516612529754
 70
   192
  0
VERTEX
  5
414
330
3F0
100
AcDbEntity
  8
3D-GENM
100
AcDbVertex
100
AcDbPolyFaceMeshVertex
 10
2.937500059604644
 20
-7.205150127410887
 30
-1.968749999999999
 70
   192
  0
VERTEX
  5
415
330
3F0
100
AcDbEntity
  8
3D-GENM
100
AcDbVertex
100
AcDbPolyFaceMeshVertex
 10
2.922592520713805
 20
-7.205150127410887
 30
-2.081983387470244
 70
   192
  0
VERTEX
  5
416
330
3F0
100
AcDbEntity
  8
3D-GENM
100
AcDbVertex
100
AcDbPolyFaceMeshVertex
 10
2.878886103630065
 20
-7.205150127410887
 30
-2.187500059604644
 70
   192
  0
VERTEX
  5
417
330
3F0
100
AcDbEntity
  8
3D-GENM
100
AcDbVertex
100
AcDbPolyFaceMeshVertex
 10
2.80935913324356
 20
-7.205150127410887
 30
-2.278109192848205
 70
   192
  0
VERTEX
  5
418
330
3F0
100
AcDbEntity
  8
3D-GENM
100
AcDbVertex
100
AcDbPolyFaceMeshVertex
 10
2.718749999999999
 20
-7.205150127410887
 30
-2.34763616323471
 70
   192
  0
VERTEX
  5
419
330
3F0
100
AcDbEntity
  8
3D-GENM
100
AcDbVertex
100
AcDbPolyFaceMeshVertex
 10
2.6132333278656
 20
-7.205150127410887
 30
-2.39134258031845
 70
   192
  0
VERTEX
  5
41A
330
3F0
100
AcDbEntity
  8
3D-GENM
100
AcDbVertex
100
AcDbPolyFaceMeshVertex
 10
2.499999940395354
 20
-7.205150127410887
 30
-2.406249940395354
 70
   192
  0
VERTEX
  5
41B
330
3F0
100
AcDbEntity
  8
3D-GENM
100
AcDbVertex
100
AcDbPolyFaceMeshVertex
 10
2.386766731739043
 20
-7.205150127410887
 30
-2.39134258031845
 70
   192
  0
VERTEX
  5
41C
330
3F0
100
AcDbEntity
  8
3D-GENM
100
AcDbVertex
100
AcDbPolyFaceMeshVertex
 10
2.281250059604644
 20
-7.205150127410887
 30
-2.34763616323471
 70
   192
  0
VERTEX
  5
41D
330
3F0
100
AcDbEntity
  8
3D-GENM
100
AcDbVertex
100
AcDbPolyFaceMeshVertex
 10
2.190640747547149
 20
-7.205150127410887
 30
-2.278109192848205
 70
   192
  0
VERTEX
  5
41E
330
3F0
100
AcDbEntity
  8
3D-GENM
100
AcDbVertex
100
AcDbPolyFaceMeshVertex
 10
2.121113955974578
 20
-7.205150127410887
 30
-2.187500059604644
 70
   192
  0
VERTEX
  5
41F
330
3F0
100
AcDbEntity
  8
3D-GENM
100
AcDbVertex
100
AcDbPolyFaceMeshVertex
 10
2.077407538890838
 20
-7.205150127410887
 30
-2.081983387470244
 70
   192
  0
VERTEX
  5
420
330
3F0
100
AcDbEntity
  8
3D-GENM
100
AcDbVertex
100
AcDbPolyFaceMeshVertex
 10
2.062499999999999
 20
-7.205150127410887
 30
-1.968749999999999
 70
   192
  0
VERTEX
  5
421
330
3F0
100
AcDbEntity
  8
3D-GENM
100
AcDbFaceRecord
 10
0.0
 20
0.0
 30
0.0
 70
   128
 71
     6
 72
    -5
 73
     7
  0
VERTEX
  5
422
330
3F0
100
AcDbEntity
  8
3D-GENM
100
AcDbFaceRecord
 10
0.0
 20
0.0
 30
0.0
 70
   128
 71
     9
 72
     8
 73
    -7
 74
    10
  0
VERTEX
  5
423
330
3F0
100
AcDbEntity
  8
3D-GENM
100
AcDbFaceRecord
 10
0.0
 20
0.0
 30
0.0
 70
   128
 71
   -22
 72
   -10
 73
    -7
 74
    -3
  0
VERTEX
  5
424
330
3F0
100
AcDbEntity
  8
3D-GENM
100
AcDbFaceRecord
 10
0.0
 20
0.0
 30
0.0
 70
   128
 71
     5
 72
     4
 73
    -3
 74
    -7
  0
VERTEX
  5
425
330
3F0
100
AcDbEntity
  8
3D-GENM
100
AcDbFaceRecord
 10
0.0
 20
0.0
 30
0.0
 70
   128
 71
     2
 72
     1
 73
   -24
 74
     3
  0
VERTEX
  5
426
330
3F0
100
AcDbEntity
  8
3D-GENM
100
AcDbFaceRecord
 10
0.0
 20
0.0
 30
0.0
 70
   128
 71
   -22
 72
    -3
 73
    24
 74
    23
  0
VERTEX
  5
427
330
3F0
100
AcDbEntity
  8
3D-GENM
100
AcDbFaceRecord
 10
0.0
 20
0.0
 30
0.0
 70
   128
 71
    11
 72
   -10
 73
   -22
 74
    12
  0
VERTEX
  5
428
330
3F0
100
AcDbEntity
  8
3D-GENM
100
AcDbFaceRecord
 10
0.0
 20
0.0
 30
0.0
 70
   128
 71
    14
 72
    13
 73
   -12
 74
   -16
  0
VERTEX
  5
429
330
3F0
100
AcDbEntity
  8
3D-GENM
100
AcDbFaceRecord
 10
0.0
 20
0.0
 30
0.0
 70
   128
 71
    17
 72
   -16
 73
   -12
 74
   -22
  0
VERTEX
  5
42A
330
3F0
100
AcDbEntity
  8
3D-GENM
100
AcDbFaceRecord
 10
0.0
 20
0.0
 30
0.0
 70
   128
 71
    15
 72
   -14
 73
    16
  0
VERTEX
  5
42B
330
3F0
100
AcDbEntity
  8
3D-GENM
100
AcDbFaceRecord
 10
0.0
 20
0.0
 30
0.0
 70
   128
 71
    22
 72
    21
 73
    20
 74
   -19
  0
VERTEX
  5
42C
330
3F0
100
AcDbEntity
  8
3D-GENM
100
AcDbFaceRecord
 10
0.0
 20
0.0
 30
0.0
 70
   128
 71
   -17
 72
   -22
 73
    19
 74
    18
  0
VERTEX
  5
42D
330
3F0
100
AcDbEntity
  8
3D-GENM
100
AcDbFaceRecord
 10
0.0
 20
0.0
 30
0.0
 70
   128
 71
    30
 72
   -29
 73
    31
  0
VERTEX
  5
42E
330
3F0
100
AcDbEntity
  8
3D-GENM
100
AcDbFaceRecord
 10
0.0
 20
0.0
 30
0.0
 70
   128
 71
    33
 72
    32
 73
   -31
 74
   -29
  0
VERTEX
  5
42F
330
3F0
100
AcDbEntity
  8
3D-GENM
100
AcDbFaceRecord
 10
0.0
 20
0.0
 30
0.0
 70
   128
 71
    35
 72
    34
 73
   -33
 74
    36
  0
VERTEX
  5
430
330
3F0
100
AcDbEntity
  8
3D-GENM
100
AcDbFaceRecord
 10
0.0
 20
0.0
 30
0.0
 70
   128
 71
   -27
 72
   -47
 73
   -33
 74
   -29
  0
VERTEX
  5
431
330
3F0
100
AcDbEntity
  8
3D-GENM
100
AcDbFaceRecord
 10
0.0
 20
0.0
 30
0.0
 70
   128
 71
    28
 72
   -27
 73
    29
  0
VERTEX
  5
432
330
3F0
100
AcDbEntity
  8
3D-GENM
100
AcDbFaceRecord
 10
0.0
 20
0.0
 30
0.0
 70
   128
 71
    26
 72
    25
 73
    48
 74
   -47
  0
VERTEX
  5
433
330
3F0
100
AcDbEntity
  8
3D-GENM
100
AcDbFaceRecord
 10
0.0
 20
0.0
 30
0.0
 70
   128
 71
   -47
 72
    27
 73
   -26
  0
VERTEX
  5
434
330
3F0
100
AcDbEntity
  8
3D-GENM
100
AcDbFaceRecord
 10
0.0
 20
0.0
 30
0.0
 70
   128
 71
    38
 72
    37
 73
   -36
 74
   -40
  0
VERTEX
  5
435
330
3F0
100
AcDbEntity
  8
3D-GENM
100
AcDbFaceRecord
 10
0.0
 20
0.0
 30
0.0
 70
   128
 71
    41
 72
   -40
 73
   -33
 74
   -47
  0
VERTEX
  5
436
330
3F0
100
AcDbEntity
  8
3D-GENM
100
AcDbFaceRecord
 10
0.0
 20
0.0
 30
0.0
 70
   128
 71
    39
 72
   -38
 73
    40
  0
VERTEX
  5
437
330
3F0
100
AcDbEntity
  8
3D-GENM
100
AcDbFaceRecord
 10
0.0
 20
0.0
 30
0.0
 70
   128
 71
    46
 72
    45
 73
   -44
 74
    47
  0
VERTEX
  5
438
330
3F0
100
AcDbEntity
  8
3D-GENM
100
AcDbFaceRecord
 10
0.0
 20
0.0
 30
0.0
 70
   128
 71
    44
 72
   -43
 73
   -41
 74
   -47
  0
VERTEX
  5
439
330
3F0
100
AcDbEntity
  8
3D-GENM
100
AcDbFaceRecord
 10
0.0
 20
0.0
 30
0.0
 70
   128
 71
   -41
 72
    43
 73
    42
  0
VERTEX
  5
43A
330
3F0
100
AcDbEntity
  8
3D-GENM
100
AcDbFaceRecord
 10
0.0
 20
0.0
 30
0.0
 70
   128
 71
   -40
 72
   -36
 73
   -33
  0
SEQEND
  5
43B
330
3F0
100
AcDbEntity
  8
3D-GENM
  0
POLYLINE
  5
43C
330
7F
100
AcDbEntity
  8
3D-GENM
100
AcDbPolyFaceMesh
 66
     1
 10
0.0
 20
0.0
 30
0.0
 70
    64
 71
    26
 72
    12
1001
REVIT
1002
{
1070
     4
1000
6208
1002
}
  0
VERTEX
  5
43D
330
43C
100
AcDbEntity
  8
3D-GENM
100
AcDbVertex
100
AcDbPolyFaceMeshVertex
 10
-2.062499999999999
 20
-7.56249976158142
 30
-1.968749999999999
 70
   192
  0
VERTEX
  5
43E
330
43C
100
AcDbEntity
  8
3D-GENM
100
AcDbVertex
100
AcDbPolyFaceMeshVertex
 10
-2.077407538890838
 20
-7.56249976158142
 30
-2.081983387470244
 70
   192
  0
VERTEX
  5
43F
330
43C
100
AcDbEntity
  8
3D-GENM
100
AcDbVertex
100
AcDbPolyFaceMeshVertex
 10
-2.121113955974578
 20
-7.56249976158142
 30
-2.187500059604644
 70
   192
  0
VERTEX
  5
440
330
43C
100
AcDbEntity
  8
3D-GENM
100
AcDbVertex
100
AcDbPolyFaceMeshVertex
 10
-2.190640747547149
 20
-7.56249976158142
 30
-2.278109192848205
 70
   192
  0
VERTEX
  5
441
330
43C
100
AcDbEntity
  8
3D-GENM
100
AcDbVertex
100
AcDbPolyFaceMeshVertex
 10
-2.281250059604644
 20
-7.56249976158142
 30
-2.34763616323471
 70
   192
  0
VERTEX
  5
442
330
43C
100
AcDbEntity
  8
3D-GENM
100
AcDbVertex
100
AcDbPolyFaceMeshVertex
 10
-2.386766731739043
 20
-7.56249976158142
 30
-2.39134258031845
 70
   192
  0
VERTEX
  5
443
330
43C
100
AcDbEntity
  8
3D-GENM
100
AcDbVertex
100
AcDbPolyFaceMeshVertex
 10
-2.499999940395354
 20
-7.56249976158142
 30
-2.406249940395354
 70
   192
  0
VERTEX
  5
444
330
43C
100
AcDbEntity
  8
3D-GENM
100
AcDbVertex
100
AcDbPolyFaceMeshVertex
 10
-2.6132333278656
 20
-7.56249976158142
 30
-2.39134258031845
 70
   192
  0
VERTEX
  5
445
330
43C
100
AcDbEntity
  8
3D-GENM
100
AcDbVertex
100
AcDbPolyFaceMeshVertex
 10
-2.718749999999999
 20
-7.56249976158142
 30
-2.34763616323471
 70
   192
  0
VERTEX
  5
446
330
43C
100
AcDbEntity
  8
3D-GENM
100
AcDbVertex
100
AcDbPolyFaceMeshVertex
 10
-2.80935913324356
 20
-7.56249976158142
 30
-2.278109192848205
 70
   192
  0
VERTEX
  5
447
330
43C
100
AcDbEntity
  8
3D-GENM
100
AcDbVertex
100
AcDbPolyFaceMeshVertex
 10
-2.878886103630065
 20
-7.56249976158142
 30
-2.187500059604644
 70
   192
  0
VERTEX
  5
448
330
43C
100
AcDbEntity
  8
3D-GENM
100
AcDbVertex
100
AcDbPolyFaceMeshVertex
 10
-2.922592520713805
 20
-7.56249976158142
 30
-2.081983387470244
 70
   192
  0
VERTEX
  5
449
330
43C
100
AcDbEntity
  8
3D-GENM
100
AcDbVertex
100
AcDbPolyFaceMeshVertex
 10
-2.937500059604644
 20
-7.56249976158142
 30
-1.968749999999999
 70
   192
  0
VERTEX
  5
44A
330
43C
100
AcDbEntity
  8
3D-GENM
100
AcDbVertex
100
AcDbPolyFaceMeshVertex
 10
-2.937500059604644
 20
-7.205150127410887
 30
-1.968749999999999
 70
   192
  0
VERTEX
  5
44B
330
43C
100
AcDbEntity
  8
3D-GENM
100
AcDbVertex
100
AcDbPolyFaceMeshVertex
 10
-2.922592520713805
 20
-7.205150127410887
 30
-2.081983387470244
 70
   192
  0
VERTEX
  5
44C
330
43C
100
AcDbEntity
  8
3D-GENM
100
AcDbVertex
100
AcDbPolyFaceMeshVertex
 10
-2.878886103630065
 20
-7.205150127410887
 30
-2.187500059604644
 70
   192
  0
VERTEX
  5
44D
330
43C
100
AcDbEntity
  8
3D-GENM
100
AcDbVertex
100
AcDbPolyFaceMeshVertex
 10
-2.80935913324356
 20
-7.205150127410887
 30
-2.278109192848205
 70
   192
  0
VERTEX
  5
44E
330
43C
100
AcDbEntity
  8
3D-GENM
100
AcDbVertex
100
AcDbPolyFaceMeshVertex
 10
-2.718749999999999
 20
-7.205150127410887
 30
-2.34763616323471
 70
   192
  0
VERTEX
  5
44F
330
43C
100
AcDbEntity
  8
3D-GENM
100
AcDbVertex
100
AcDbPolyFaceMeshVertex
 10
-2.6132333278656
 20
-7.205150127410887
 30
-2.39134258031845
 70
   192
  0
VERTEX
  5
450
330
43C
100
AcDbEntity
  8
3D-GENM
100
AcDbVertex
100
AcDbPolyFaceMeshVertex
 10
-2.499999940395354
 20
-7.205150127410887
 30
-2.406249940395354
 70
   192
  0
VERTEX
  5
451
330
43C
100
AcDbEntity
  8
3D-GENM
100
AcDbVertex
100
AcDbPolyFaceMeshVertex
 10
-2.386766731739043
 20
-7.205150127410887
 30
-2.39134258031845
 70
   192
  0
VERTEX
  5
452
330
43C
100
AcDbEntity
  8
3D-GENM
100
AcDbVertex
100
AcDbPolyFaceMeshVertex
 10
-2.281250059604644
 20
-7.205150127410887
 30
-2.34763616323471
 70
   192
  0
VERTEX
  5
453
330
43C
100
AcDbEntity
  8
3D-GENM
100
AcDbVertex
100
AcDbPolyFaceMeshVertex
 10
-2.190640747547149
 20
-7.205150127410887
 30
-2.278109192848205
 70
   192
  0
VERTEX
  5
454
330
43C
100
AcDbEntity
  8
3D-GENM
100
AcDbVertex
100
AcDbPolyFaceMeshVertex
 10
-2.121113955974578
 20
-7.205150127410887
 30
-2.187500059604644
 70
   192
  0
VERTEX
  5
455
330
43C
100
AcDbEntity
  8
3D-GENM
100
AcDbVertex
100
AcDbPolyFaceMeshVertex
 10
-2.077407538890838
 20
-7.205150127410887
 30
-2.081983387470244
 70
   192
  0
VERTEX
  5
456
330
43C
100
AcDbEntity
  8
3D-GENM
100
AcDbVertex
100
AcDbPolyFaceMeshVertex
 10
-2.062499999999999
 20
-7.205150127410887
 30
-1.968749999999999
 70
   192
  0
VERTEX
  5
457
330
43C
100
AcDbEntity
  8
3D-GENM
100
AcDbFaceRecord
 10
0.0
 20
0.0
 30
0.0
 70
   128
 71
   -12
 72
    15
 73
    14
 74
    13
  0
VERTEX
  5
458
330
43C
100
AcDbEntity
  8
3D-GENM
100
AcDbFaceRecord
 10
0.0
 20
0.0
 30
0.0
 70
   128
 71
   -11
 72
    16
 73
   -15
 74
    12
  0
VERTEX
  5
459
330
43C
100
AcDbEntity
  8
3D-GENM
100
AcDbFaceRecord
 10
0.0
 20
0.0
 30
0.0
 70
   128
 71
    -9
 72
    18
 73
   -17
 74
    10
  0
VERTEX
  5
45A
330
43C
100
AcDbEntity
  8
3D-GENM
100
AcDbFaceRecord
 10
0.0
 20
0.0
 30
0.0
 70
   128
 71
   -10
 72
    17
 73
   -16
 74
    11
  0
VERTEX
  5
45B
330
43C
100
AcDbEntity
  8
3D-GENM
100
AcDbFaceRecord
 10
0.0
 20
0.0
 30
0.0
 70
   128
 71
    -8
 72
    19
 73
   -18
 74
     9
  0
VERTEX
  5
45C
330
43C
100
AcDbEntity
  8
3D-GENM
100
AcDbFaceRecord
 10
0.0
 20
0.0
 30
0.0
 70
   128
 71
   -19
 72
     8
 73
    -7
 74
    20
  0
VERTEX
  5
45D
330
43C
100
AcDbEntity
  8
3D-GENM
100
AcDbFaceRecord
 10
0.0
 20
0.0
 30
0.0
 70
   128
 71
    -6
 72
    21
 73
   -20
 74
     7
  0
VERTEX
  5
45E
330
43C
100
AcDbEntity
  8
3D-GENM
100
AcDbFaceRecord
 10
0.0
 20
0.0
 30
0.0
 70
   128
 71
    -5
 72
    22
 73
   -21
 74
     6
  0
VERTEX
  5
45F
330
43C
100
AcDbEntity
  8
3D-GENM
100
AcDbFaceRecord
 10
0.0
 20
0.0
 30
0.0
 70
   128
 71
    -3
 72
    24
 73
   -23
 74
     4
  0
VERTEX
  5
460
330
43C
100
AcDbEntity
  8
3D-GENM
100
AcDbFaceRecord
 10
0.0
 20
0.0
 30
0.0
 70
   128
 71
    -4
 72
    23
 73
   -22
 74
     5
  0
VERTEX
  5
461
330
43C
100
AcDbEntity
  8
3D-GENM
100
AcDbFaceRecord
 10
0.0
 20
0.0
 30
0.0
 70
   128
 71
    -2
 72
    25
 73
   -24
 74
     3
  0
VERTEX
  5
462
330
43C
100
AcDbEntity
  8
3D-GENM
100
AcDbFaceRecord
 10
0.0
 20
0.0
 30
0.0
 70
   128
 71
   -25
 72
     2
 73
     1
 74
    26
  0
SEQEND
  5
463
330
43C
100
AcDbEntity
  8
3D-GENM
  0
POLYLINE
  5
464
330
7F
100
AcDbEntity
  8
3D-GENM
100
AcDbPolyFaceMesh
 66
     1
 10
0.0
 20
0.0
 30
0.0
 70
    64
 71
    26
 72
    12
1001
REVIT
1002
{
1070
     4
1000
6208
1002
}
  0
VERTEX
  5
465
330
464
100
AcDbEntity
  8
3D-GENM
100
AcDbVertex
100
AcDbPolyFaceMeshVertex
 10
-2.937500059604644
 20
-7.56249976158142
 30
-1.968749999999999
 70
   192
  0
VERTEX
  5
466
330
464
100
AcDbEntity
  8
3D-GENM
100
AcDbVertex
100
AcDbPolyFaceMeshVertex
 10
-2.922592520713805
 20
-7.56249976158142
 30
-1.855516612529754
 70
   192
  0
VERTEX
  5
467
330
464
100
AcDbEntity
  8
3D-GENM
100
AcDbVertex
100
AcDbPolyFaceMeshVertex
 10
-2.878886103630065
 20
-7.56249976158142
 30
-1.749999940395355
 70
   192
  0
VERTEX
  5
468
330
464
100
AcDbEntity
  8
3D-GENM
100
AcDbVertex
100
AcDbPolyFaceMeshVertex
 10
-2.80935913324356
 20
-7.56249976158142
 30
-1.659390807151794
 70
   192
  0
VERTEX
  5
469
330
464
100
AcDbEntity
  8
3D-GENM
100
AcDbVertex
100
AcDbPolyFaceMeshVertex
 10
-2.718749999999999
 20
-7.56249976158142
 30
-1.589863836765289
 70
   192
  0
VERTEX
  5
46A
330
464
100
AcDbEntity
  8
3D-GENM
100
AcDbVertex
100
AcDbPolyFaceMeshVertex
 10
-2.6132333278656
 20
-7.56249976158142
 30
-1.546157419681548
 70
   192
  0
VERTEX
  5
46B
330
464
100
AcDbEntity
  8
3D-GENM
100
AcDbVertex
100
AcDbPolyFaceMeshVertex
 10
-2.499999940395354
 20
-7.56249976158142
 30
-1.531250059604644
 70
   192
  0
VERTEX
  5
46C
330
464
100
AcDbEntity
  8
3D-GENM
100
AcDbVertex
100
AcDbPolyFaceMeshVertex
 10
-2.386766731739043
 20
-7.56249976158142
 30
-1.546157419681548
 70
   192
  0
VERTEX
  5
46D
330
464
100
AcDbEntity
  8
3D-GENM
100
AcDbVertex
100
AcDbPolyFaceMeshVertex
 10
-2.281250059604644
 20
-7.56249976158142
 30
-1.589863836765289
 70
   192
  0
VERTEX
  5
46E
330
464
100
AcDbEntity
  8
3D-GENM
100
AcDbVertex
100
AcDbPolyFaceMeshVertex
 10
-2.190640747547149
 20
-7.56249976158142
 30
-1.659390807151794
 70
   192
  0
VERTEX
  5
46F
330
464
100
AcDbEntity
  8
3D-GENM
100
AcDbVertex
100
AcDbPolyFaceMeshVertex
 10
-2.121113955974578
 20
-7.56249976158142
 30
-1.749999940395355
 70
   192
  0
VERTEX
  5
470
330
464
100
AcDbEntity
  8
3D-GENM
100
AcDbVertex
100
AcDbPolyFaceMeshVertex
 10
-2.077407538890838
 20
-7.56249976158142
 30
-1.855516612529754
 70
   192
  0
VERTEX
  5
471
330
464
100
AcDbEntity
  8
3D-GENM
100
AcDbVertex
100
AcDbPolyFaceMeshVertex
 10
-2.062499999999999
 20
-7.56249976158142
 30
-1.968749999999999
 70
   192
  0
VERTEX
  5
472
330
464
100
AcDbEntity
  8
3D-GENM
100
AcDbVertex
100
AcDbPolyFaceMeshVertex
 10
-2.062499999999999
 20
-7.205150127410887
 30
-1.968749999999999
 70
   192
  0
VERTEX
  5
473
330
464
100
AcDbEntity
  8
3D-GENM
100
AcDbVertex
100
AcDbPolyFaceMeshVertex
 10
-2.077407538890838
 20
-7.205150127410887
 30
-1.855516612529754
 70
   192
  0
VERTEX
  5
474
330
464
100
AcDbEntity
  8
3D-GENM
100
AcDbVertex
100
AcDbPolyFaceMeshVertex
 10
-2.121113955974578
 20
-7.205150127410887
 30
-1.749999940395355
 70
   192
  0
VERTEX
  5
475
330
464
100
AcDbEntity
  8
3D-GENM
100
AcDbVertex
100
AcDbPolyFaceMeshVertex
 10
-2.190640747547149
 20
-7.205150127410887
 30
-1.659390807151794
 70
   192
  0
VERTEX
  5
476
330
464
100
AcDbEntity
  8
3D-GENM
100
AcDbVertex
100
AcDbPolyFaceMeshVertex
 10
-2.281250059604644
 20
-7.205150127410887
 30
-1.589863836765289
 70
   192
  0
VERTEX
  5
477
330
464
100
AcDbEntity
  8
3D-GENM
100
AcDbVertex
100
AcDbPolyFaceMeshVertex
 10
-2.386766731739043
 20
-7.205150127410887
 30
-1.546157419681548
 70
   192
  0
VERTEX
  5
478
330
464
100
AcDbEntity
  8
3D-GENM
100
AcDbVertex
100
AcDbPolyFaceMeshVertex
 10
-2.499999940395354
 20
-7.205150127410887
 30
-1.531250059604644
 70
   192
  0
VERTEX
  5
479
330
464
100
AcDbEntity
  8
3D-GENM
100
AcDbVertex
100
AcDbPolyFaceMeshVertex
 10
-2.6132333278656
 20
-7.205150127410887
 30
-1.546157419681548
 70
   192
  0
VERTEX
  5
47A
330
464
100
AcDbEntity
  8
3D-GENM
100
AcDbVertex
100
AcDbPolyFaceMeshVertex
 10
-2.718749999999999
 20
-7.205150127410887
 30
-1.589863836765289
 70
   192
  0
VERTEX
  5
47B
330
464
100
AcDbEntity
  8
3D-GENM
100
AcDbVertex
100
AcDbPolyFaceMeshVertex
 10
-2.80935913324356
 20
-7.205150127410887
 30
-1.659390807151794
 70
   192
  0
VERTEX
  5
47C
330
464
100
AcDbEntity
  8
3D-GENM
100
AcDbVertex
100
AcDbPolyFaceMeshVertex
 10
-2.878886103630065
 20
-7.205150127410887
 30
-1.749999940395355
 70
   192
  0
VERTEX
  5
47D
330
464
100
AcDbEntity
  8
3D-GENM
100
AcDbVertex
100
AcDbPolyFaceMeshVertex
 10
-2.922592520713805
 20
-7.205150127410887
 30
-1.855516612529754
 70
   192
  0
VERTEX
  5
47E
330
464
100
AcDbEntity
  8
3D-GENM
100
AcDbVertex
100
AcDbPolyFaceMeshVertex
 10
-2.937500059604644
 20
-7.205150127410887
 30
-1.968749999999999
 70
   192
  0
VERTEX
  5
47F
330
464
100
AcDbEntity
  8
3D-GENM
100
AcDbFaceRecord
 10
0.0
 20
0.0
 30
0.0
 70
   128
 71
   -12
 72
    15
 73
    14
 74
    13
  0
VERTEX
  5
480
330
464
100
AcDbEntity
  8
3D-GENM
100
AcDbFaceRecord
 10
0.0
 20
0.0
 30
0.0
 70
   128
 71
   -11
 72
    16
 73
   -15
 74
    12
  0
VERTEX
  5
481
330
464
100
AcDbEntity
  8
3D-GENM
100
AcDbFaceRecord
 10
0.0
 20
0.0
 30
0.0
 70
   128
 71
    -9
 72
    18
 73
   -17
 74
    10
  0
VERTEX
  5
482
330
464
100
AcDbEntity
  8
3D-GENM
100
AcDbFaceRecord
 10
0.0
 20
0.0
 30
0.0
 70
   128
 71
   -10
 72
    17
 73
   -16
 74
    11
  0
VERTEX
  5
483
330
464
100
AcDbEntity
  8
3D-GENM
100
AcDbFaceRecord
 10
0.0
 20
0.0
 30
0.0
 70
   128
 71
    -8
 72
    19
 73
   -18
 74
     9
  0
VERTEX
  5
484
330
464
100
AcDbEntity
  8
3D-GENM
100
AcDbFaceRecord
 10
0.0
 20
0.0
 30
0.0
 70
   128
 71
   -19
 72
     8
 73
    -7
 74
    20
  0
VERTEX
  5
485
330
464
100
AcDbEntity
  8
3D-GENM
100
AcDbFaceRecord
 10
0.0
 20
0.0
 30
0.0
 70
   128
 71
    -6
 72
    21
 73
   -20
 74
     7
  0
VERTEX
  5
486
330
464
100
AcDbEntity
  8
3D-GENM
100
AcDbFaceRecord
 10
0.0
 20
0.0
 30
0.0
 70
   128
 71
    -5
 72
    22
 73
   -21
 74
     6
  0
VERTEX
  5
487
330
464
100
AcDbEntity
  8
3D-GENM
100
AcDbFaceRecord
 10
0.0
 20
0.0
 30
0.0
 70
   128
 71
    -3
 72
    24
 73
   -23
 74
     4
  0
VERTEX
  5
488
330
464
100
AcDbEntity
  8
3D-GENM
100
AcDbFaceRecord
 10
0.0
 20
0.0
 30
0.0
 70
   128
 71
    -4
 72
    23
 73
   -22
 74
     5
  0
VERTEX
  5
489
330
464
100
AcDbEntity
  8
3D-GENM
100
AcDbFaceRecord
 10
0.0
 20
0.0
 30
0.0
 70
   128
 71
    -2
 72
    25
 73
   -24
 74
     3
  0
VERTEX
  5
48A
330
464
100
AcDbEntity
  8
3D-GENM
100
AcDbFaceRecord
 10
0.0
 20
0.0
 30
0.0
 70
   128
 71
   -25
 72
     2
 73
     1
 74
    26
  0
SEQEND
  5
48B
330
464
100
AcDbEntity
  8
3D-GENM
  0
POLYLINE
  5
48C
330
7F
100
AcDbEntity
  8
3D-GENM
100
AcDbPolyFaceMesh
 66
     1
 10
0.0
 20
0.0
 30
0.0
 70
    64
 71
    26
 72
    12
1001
REVIT
1002
{
1070
     4
1000
6208
1002
}
  0
VERTEX
  5
48D
330
48C
100
AcDbEntity
  8
3D-GENM
100
AcDbVertex
100
AcDbPolyFaceMeshVertex
 10
2.937500059604644
 20
-7.56249976158142
 30
-1.968749999999999
 70
   192
  0
VERTEX
  5
48E
330
48C
100
AcDbEntity
  8
3D-GENM
100
AcDbVertex
100
AcDbPolyFaceMeshVertex
 10
2.922592520713805
 20
-7.56249976158142
 30
-2.081983387470244
 70
   192
  0
VERTEX
  5
48F
330
48C
100
AcDbEntity
  8
3D-GENM
100
AcDbVertex
100
AcDbPolyFaceMeshVertex
 10
2.878886103630065
 20
-7.56249976158142
 30
-2.187500059604644
 70
   192
  0
VERTEX
  5
490
330
48C
100
AcDbEntity
  8
3D-GENM
100
AcDbVertex
100
AcDbPolyFaceMeshVertex
 10
2.80935913324356
 20
-7.56249976158142
 30
-2.278109192848205
 70
   192
  0
VERTEX
  5
491
330
48C
100
AcDbEntity
  8
3D-GENM
100
AcDbVertex
100
AcDbPolyFaceMeshVertex
 10
2.718749999999999
 20
-7.56249976158142
 30
-2.34763616323471
 70
   192
  0
VERTEX
  5
492
330
48C
100
AcDbEntity
  8
3D-GENM
100
AcDbVertex
100
AcDbPolyFaceMeshVertex
 10
2.6132333278656
 20
-7.56249976158142
 30
-2.39134258031845
 70
   192
  0
VERTEX
  5
493
330
48C
100
AcDbEntity
  8
3D-GENM
100
AcDbVertex
100
AcDbPolyFaceMeshVertex
 10
2.499999940395354
 20
-7.56249976158142
 30
-2.406249940395354
 70
   192
  0
VERTEX
  5
494
330
48C
100
AcDbEntity
  8
3D-GENM
100
AcDbVertex
100
AcDbPolyFaceMeshVertex
 10
2.386766731739043
 20
-7.56249976158142
 30
-2.39134258031845
 70
   192
  0
VERTEX
  5
495
330
48C
100
AcDbEntity
  8
3D-GENM
100
AcDbVertex
100
AcDbPolyFaceMeshVertex
 10
2.281250059604644
 20
-7.56249976158142
 30
-2.34763616323471
 70
   192
  0
VERTEX
  5
496
330
48C
100
AcDbEntity
  8
3D-GENM
100
AcDbVertex
100
AcDbPolyFaceMeshVertex
 10
2.190640747547149
 20
-7.56249976158142
 30
-2.278109192848205
 70
   192
  0
VERTEX
  5
497
330
48C
100
AcDbEntity
  8
3D-GENM
100
AcDbVertex
100
AcDbPolyFaceMeshVertex
 10
2.121113955974578
 20
-7.56249976158142
 30
-2.187500059604644
 70
   192
  0
VERTEX
  5
498
330
48C
100
AcDbEntity
  8
3D-GENM
100
AcDbVertex
100
AcDbPolyFaceMeshVertex
 10
2.077407538890838
 20
-7.56249976158142
 30
-2.081983387470244
 70
   192
  0
VERTEX
  5
499
330
48C
100
AcDbEntity
  8
3D-GENM
100
AcDbVertex
100
AcDbPolyFaceMeshVertex
 10
2.062499999999999
 20
-7.56249976158142
 30
-1.968749999999999
 70
   192
  0
VERTEX
  5
49A
330
48C
100
AcDbEntity
  8
3D-GENM
100
AcDbVertex
100
AcDbPolyFaceMeshVertex
 10
2.062499999999999
 20
-7.205150127410887
 30
-1.968749999999999
 70
   192
  0
VERTEX
  5
49B
330
48C
100
AcDbEntity
  8
3D-GENM
100
AcDbVertex
100
AcDbPolyFaceMeshVertex
 10
2.077407538890838
 20
-7.205150127410887
 30
-2.081983387470244
 70
   192
  0
VERTEX
  5
49C
330
48C
100
AcDbEntity
  8
3D-GENM
100
AcDbVertex
100
AcDbPolyFaceMeshVertex
 10
2.121113955974578
 20
-7.205150127410887
 30
-2.187500059604644
 70
   192
  0
VERTEX
  5
49D
330
48C
100
AcDbEntity
  8
3D-GENM
100
AcDbVertex
100
AcDbPolyFaceMeshVertex
 10
2.190640747547149
 20
-7.205150127410887
 30
-2.278109192848205
 70
   192
  0
VERTEX
  5
49E
330
48C
100
AcDbEntity
  8
3D-GENM
100
AcDbVertex
100
AcDbPolyFaceMeshVertex
 10
2.281250059604644
 20
-7.205150127410887
 30
-2.34763616323471
 70
   192
  0
VERTEX
  5
49F
330
48C
100
AcDbEntity
  8
3D-GENM
100
AcDbVertex
100
AcDbPolyFaceMeshVertex
 10
2.386766731739043
 20
-7.205150127410887
 30
-2.39134258031845
 70
   192
  0
VERTEX
  5
4A0
330
48C
100
AcDbEntity
  8
3D-GENM
100
AcDbVertex
100
AcDbPolyFaceMeshVertex
 10
2.499999940395354
 20
-7.205150127410887
 30
-2.406249940395354
 70
   192
  0
VERTEX
  5
4A1
330
48C
100
AcDbEntity
  8
3D-GENM
100
AcDbVertex
100
AcDbPolyFaceMeshVertex
 10
2.6132333278656
 20
-7.205150127410887
 30
-2.39134258031845
 70
   192
  0
VERTEX
  5
4A2
330
48C
100
AcDbEntity
  8
3D-GENM
100
AcDbVertex
100
AcDbPolyFaceMeshVertex
 10
2.718749999999999
 20
-7.205150127410887
 30
-2.34763616323471
 70
   192
  0
VERTEX
  5
4A3
330
48C
100
AcDbEntity
  8
3D-GENM
100
AcDbVertex
100
AcDbPolyFaceMeshVertex
 10
2.80935913324356
 20
-7.205150127410887
 30
-2.278109192848205
 70
   192
  0
VERTEX
  5
4A4
330
48C
100
AcDbEntity
  8
3D-GENM
100
AcDbVertex
100
AcDbPolyFaceMeshVertex
 10
2.878886103630065
 20
-7.205150127410887
 30
-2.187500059604644
 70
   192
  0
VERTEX
  5
4A5
330
48C
100
AcDbEntity
  8
3D-GENM
100
AcDbVertex
100
AcDbPolyFaceMeshVertex
 10
2.922592520713805
 20
-7.205150127410887
 30
-2.081983387470244
 70
   192
  0
VERTEX
  5
4A6
330
48C
100
AcDbEntity
  8
3D-GENM
100
AcDbVertex
100
AcDbPolyFaceMeshVertex
 10
2.937500059604644
 20
-7.205150127410887
 30
-1.968749999999999
 70
   192
  0
VERTEX
  5
4A7
330
48C
100
AcDbEntity
  8
3D-GENM
100
AcDbFaceRecord
 10
0.0
 20
0.0
 30
0.0
 70
   128
 71
   -11
 72
    16
 73
   -15
 74
    12
  0
VERTEX
  5
4A8
330
48C
100
AcDbEntity
  8
3D-GENM
100
AcDbFaceRecord
 10
0.0
 20
0.0
 30
0.0
 70
   128
 71
   -12
 72
    15
 73
    14
 74
    13
  0
VERTEX
  5
4A9
330
48C
100
AcDbEntity
  8
3D-GENM
100
AcDbFaceRecord
 10
0.0
 20
0.0
 30
0.0
 70
   128
 71
    -8
 72
    19
 73
   -18
 74
     9
  0
VERTEX
  5
4AA
330
48C
100
AcDbEntity
  8
3D-GENM
100
AcDbFaceRecord
 10
0.0
 20
0.0
 30
0.0
 70
   128
 71
    -9
 72
    18
 73
   -17
 74
    10
  0
VERTEX
  5
4AB
330
48C
100
AcDbEntity
  8
3D-GENM
100
AcDbFaceRecord
 10
0.0
 20
0.0
 30
0.0
 70
   128
 71
   -10
 72
    17
 73
   -16
 74
    11
  0
VERTEX
  5
4AC
330
48C
100
AcDbEntity
  8
3D-GENM
100
AcDbFaceRecord
 10
0.0
 20
0.0
 30
0.0
 70
   128
 71
   -19
 72
     8
 73
    -7
 74
    20
  0
VERTEX
  5
4AD
330
48C
100
AcDbEntity
  8
3D-GENM
100
AcDbFaceRecord
 10
0.0
 20
0.0
 30
0.0
 70
   128
 71
    -4
 72
    23
 73
   -22
 74
     5
  0
VERTEX
  5
4AE
330
48C
100
AcDbEntity
  8
3D-GENM
100
AcDbFaceRecord
 10
0.0
 20
0.0
 30
0.0
 70
   128
 71
    -5
 72
    22
 73
   -21
 74
     6
  0
VERTEX
  5
4AF
330
48C
100
AcDbEntity
  8
3D-GENM
100
AcDbFaceRecord
 10
0.0
 20
0.0
 30
0.0
 70
   128
 71
    -2
 72
    25
 73
   -24
 74
     3
  0
VERTEX
  5
4B0
330
48C
100
AcDbEntity
  8
3D-GENM
100
AcDbFaceRecord
 10
0.0
 20
0.0
 30
0.0
 70
   128
 71
    -3
 72
    24
 73
   -23
 74
     4
  0
VERTEX
  5
4B1
330
48C
100
AcDbEntity
  8
3D-GENM
100
AcDbFaceRecord
 10
0.0
 20
0.0
 30
0.0
 70
   128
 71
     1
 72
    26
 73
   -25
 74
     2
  0
VERTEX
  5
4B2
330
48C
100
AcDbEntity
  8
3D-GENM
100
AcDbFaceRecord
 10
0.0
 20
0.0
 30
0.0
 70
   128
 71
    -6
 72
    21
 73
   -20
 74
     7
  0
SEQEND
  5
4B3
330
48C
100
AcDbEntity
  8
3D-GENM
  0
POLYLINE
  5
4B4
330
7F
100
AcDbEntity
  8
3D-GENM
100
AcDbPolyFaceMesh
 66
     1
 10
0.0
 20
0.0
 30
0.0
 70
    64
 71
    26
 72
    12
1001
REVIT
1002
{
1070
     4
1000
6208
1002
}
  0
VERTEX
  5
4B5
330
4B4
100
AcDbEntity
  8
3D-GENM
100
AcDbVertex
100
AcDbPolyFaceMeshVertex
 10
2.062499999999999
 20
-7.56249976158142
 30
-1.968749999999999
 70
   192
  0
VERTEX
  5
4B6
330
4B4
100
AcDbEntity
  8
3D-GENM
100
AcDbVertex
100
AcDbPolyFaceMeshVertex
 10
2.077407538890838
 20
-7.56249976158142
 30
-1.855516612529754
 70
   192
  0
VERTEX
  5
4B7
330
4B4
100
AcDbEntity
  8
3D-GENM
100
AcDbVertex
100
AcDbPolyFaceMeshVertex
 10
2.121113955974578
 20
-7.56249976158142
 30
-1.749999940395355
 70
   192
  0
VERTEX
  5
4B8
330
4B4
100
AcDbEntity
  8
3D-GENM
100
AcDbVertex
100
AcDbPolyFaceMeshVertex
 10
2.190640747547149
 20
-7.56249976158142
 30
-1.659390807151794
 70
   192
  0
VERTEX
  5
4B9
330
4B4
100
AcDbEntity
  8
3D-GENM
100
AcDbVertex
100
AcDbPolyFaceMeshVertex
 10
2.281250059604644
 20
-7.56249976158142
 30
-1.589863836765289
 70
   192
  0
VERTEX
  5
4BA
330
4B4
100
AcDbEntity
  8
3D-GENM
100
AcDbVertex
100
AcDbPolyFaceMeshVertex
 10
2.386766731739043
 20
-7.56249976158142
 30
-1.546157419681548
 70
   192
  0
VERTEX
  5
4BB
330
4B4
100
AcDbEntity
  8
3D-GENM
100
AcDbVertex
100
AcDbPolyFaceMeshVertex
 10
2.499999940395354
 20
-7.56249976158142
 30
-1.531250059604644
 70
   192
  0
VERTEX
  5
4BC
330
4B4
100
AcDbEntity
  8
3D-GENM
100
AcDbVertex
100
AcDbPolyFaceMeshVertex
 10
2.6132333278656
 20
-7.56249976158142
 30
-1.546157419681548
 70
   192
  0
VERTEX
  5
4BD
330
4B4
100
AcDbEntity
  8
3D-GENM
100
AcDbVertex
100
AcDbPolyFaceMeshVertex
 10
2.718749999999999
 20
-7.56249976158142
 30
-1.589863836765289
 70
   192
  0
VERTEX
  5
4BE
330
4B4
100
AcDbEntity
  8
3D-GENM
100
AcDbVertex
100
AcDbPolyFaceMeshVertex
 10
2.80935913324356
 20
-7.56249976158142
 30
-1.659390807151794
 70
   192
  0
VERTEX
  5
4BF
330
4B4
100
AcDbEntity
  8
3D-GENM
100
AcDbVertex
100
AcDbPolyFaceMeshVertex
 10
2.878886103630065
 20
-7.56249976158142
 30
-1.749999940395355
 70
   192
  0
VERTEX
  5
4C0
330
4B4
100
AcDbEntity
  8
3D-GENM
100
AcDbVertex
100
AcDbPolyFaceMeshVertex
 10
2.922592520713805
 20
-7.56249976158142
 30
-1.855516612529754
 70
   192
  0
VERTEX
  5
4C1
330
4B4
100
AcDbEntity
  8
3D-GENM
100
AcDbVertex
100
AcDbPolyFaceMeshVertex
 10
2.937500059604644
 20
-7.56249976158142
 30
-1.968749999999999
 70
   192
  0
VERTEX
  5
4C2
330
4B4
100
AcDbEntity
  8
3D-GENM
100
AcDbVertex
100
AcDbPolyFaceMeshVertex
 10
2.937500059604644
 20
-7.205150127410887
 30
-1.968749999999999
 70
   192
  0
VERTEX
  5
4C3
330
4B4
100
AcDbEntity
  8
3D-GENM
100
AcDbVertex
100
AcDbPolyFaceMeshVertex
 10
2.922592520713805
 20
-7.205150127410887
 30
-1.855516612529754
 70
   192
  0
VERTEX
  5
4C4
330
4B4
100
AcDbEntity
  8
3D-GENM
100
AcDbVertex
100
AcDbPolyFaceMeshVertex
 10
2.878886103630065
 20
-7.205150127410887
 30
-1.749999940395355
 70
   192
  0
VERTEX
  5
4C5
330
4B4
100
AcDbEntity
  8
3D-GENM
100
AcDbVertex
100
AcDbPolyFaceMeshVertex
 10
2.80935913324356
 20
-7.205150127410887
 30
-1.659390807151794
 70
   192
  0
VERTEX
  5
4C6
330
4B4
100
AcDbEntity
  8
3D-GENM
100
AcDbVertex
100
AcDbPolyFaceMeshVertex
 10
2.718749999999999
 20
-7.205150127410887
 30
-1.589863836765289
 70
   192
  0
VERTEX
  5
4C7
330
4B4
100
AcDbEntity
  8
3D-GENM
100
AcDbVertex
100
AcDbPolyFaceMeshVertex
 10
2.6132333278656
 20
-7.205150127410887
 30
-1.546157419681548
 70
   192
  0
VERTEX
  5
4C8
330
4B4
100
AcDbEntity
  8
3D-GENM
100
AcDbVertex
100
AcDbPolyFaceMeshVertex
 10
2.499999940395354
 20
-7.205150127410887
 30
-1.531250059604644
 70
   192
  0
VERTEX
  5
4C9
330
4B4
100
AcDbEntity
  8
3D-GENM
100
AcDbVertex
100
AcDbPolyFaceMeshVertex
 10
2.386766731739043
 20
-7.205150127410887
 30
-1.546157419681548
 70
   192
  0
VERTEX
  5
4CA
330
4B4
100
AcDbEntity
  8
3D-GENM
100
AcDbVertex
100
AcDbPolyFaceMeshVertex
 10
2.281250059604644
 20
-7.205150127410887
 30
-1.589863836765289
 70
   192
  0
VERTEX
  5
4CB
330
4B4
100
AcDbEntity
  8
3D-GENM
100
AcDbVertex
100
AcDbPolyFaceMeshVertex
 10
2.190640747547149
 20
-7.205150127410887
 30
-1.659390807151794
 70
   192
  0
VERTEX
  5
4CC
330
4B4
100
AcDbEntity
  8
3D-GENM
100
AcDbVertex
100
AcDbPolyFaceMeshVertex
 10
2.121113955974578
 20
-7.205150127410887
 30
-1.749999940395355
 70
   192
  0
VERTEX
  5
4CD
330
4B4
100
AcDbEntity
  8
3D-GENM
100
AcDbVertex
100
AcDbPolyFaceMeshVertex
 10
2.077407538890838
 20
-7.205150127410887
 30
-1.855516612529754
 70
   192
  0
VERTEX
  5
4CE
330
4B4
100
AcDbEntity
  8
3D-GENM
100
AcDbVertex
100
AcDbPolyFaceMeshVertex
 10
2.062499999999999
 20
-7.205150127410887
 30
-1.968749999999999
 70
   192
  0
VERTEX
  5
4CF
330
4B4
100
AcDbEntity
  8
3D-GENM
100
AcDbFaceRecord
 10
0.0
 20
0.0
 30
0.0
 70
   128
 71
   -12
 72
    15
 73
    14
 74
    13
  0
VERTEX
  5
4D0
330
4B4
100
AcDbEntity
  8
3D-GENM
100
AcDbFaceRecord
 10
0.0
 20
0.0
 30
0.0
 70
   128
 71
   -11
 72
    16
 73
   -15
 74
    12
  0
VERTEX
  5
4D1
330
4B4
100
AcDbEntity
  8
3D-GENM
100
AcDbFaceRecord
 10
0.0
 20
0.0
 30
0.0
 70
   128
 71
    -9
 72
    18
 73
   -17
 74
    10
  0
VERTEX
  5
4D2
330
4B4
100
AcDbEntity
  8
3D-GENM
100
AcDbFaceRecord
 10
0.0
 20
0.0
 30
0.0
 70
   128
 71
   -10
 72
    17
 73
   -16
 74
    11
  0
VERTEX
  5
4D3
330
4B4
100
AcDbEntity
  8
3D-GENM
100
AcDbFaceRecord
 10
0.0
 20
0.0
 30
0.0
 70
   128
 71
    -8
 72
    19
 73
   -18
 74
     9
  0
VERTEX
  5
4D4
330
4B4
100
AcDbEntity
  8
3D-GENM
100
AcDbFaceRecord
 10
0.0
 20
0.0
 30
0.0
 70
   128
 71
   -19
 72
     8
 73
    -7
 74
    20
  0
VERTEX
  5
4D5
330
4B4
100
AcDbEntity
  8
3D-GENM
100
AcDbFaceRecord
 10
0.0
 20
0.0
 30
0.0
 70
   128
 71
    -5
 72
    22
 73
   -21
 74
     6
  0
VERTEX
  5
4D6
330
4B4
100
AcDbEntity
  8
3D-GENM
100
AcDbFaceRecord
 10
0.0
 20
0.0
 30
0.0
 70
   128
 71
    -4
 72
    23
 73
   -22
 74
     5
  0
VERTEX
  5
4D7
330
4B4
100
AcDbEntity
  8
3D-GENM
100
AcDbFaceRecord
 10
0.0
 20
0.0
 30
0.0
 70
   128
 71
    -2
 72
    25
 73
   -24
 74
     3
  0
VERTEX
  5
4D8
330
4B4
100
AcDbEntity
  8
3D-GENM
100
AcDbFaceRecord
 10
0.0
 20
0.0
 30
0.0
 70
   128
 71
    -3
 72
    24
 73
   -23
 74
     4
  0
VERTEX
  5
4D9
330
4B4
100
AcDbEntity
  8
3D-GENM
100
AcDbFaceRecord
 10
0.0
 20
0.0
 30
0.0
 70
   128
 71
     1
 72
    26
 73
   -25
 74
     2
  0
VERTEX
  5
4DA
330
4B4
100
AcDbEntity
  8
3D-GENM
100
AcDbFaceRecord
 10
0.0
 20
0.0
 30
0.0
 70
   128
 71
    -6
 72
    21
 73
   -20
 74
     7
  0
SEQEND
  5
4DB
330
4B4
100
AcDbEntity
  8
3D-GENM
  0
POLYLINE
  5
4DC
330
7F
100
AcDbEntity
  8
3D-GENM
100
AcDbPolyFaceMesh
 66
     1
 10
0.0
 20
0.0
 30
0.0
 70
    64
 71
    24
 72
    14
1001
REVIT
1002
{
1070
     4
1000
6208
1002
}
  0
VERTEX
  5
4DD
330
4DC
100
AcDbEntity
  8
3D-GENM
100
AcDbVertex
100
AcDbPolyFaceMeshVertex
 10
4.97051703929901
 20
-2.985092461109161
 30
-1.855516612529754
 70
   192
  0
VERTEX
  5
4DE
330
4DC
100
AcDbEntity
  8
3D-GENM
100
AcDbVertex
100
AcDbPolyFaceMeshVertex
 10
4.97051703929901
 20
-2.94138604402542
 30
-1.749999940395355
 70
   192
  0
VERTEX
  5
4DF
330
4DC
100
AcDbEntity
  8
3D-GENM
100
AcDbVertex
100
AcDbPolyFaceMeshVertex
 10
4.97051703929901
 20
-2.871859252452849
 30
-1.659390807151794
 70
   192
  0
VERTEX
  5
4E0
330
4DC
100
AcDbEntity
  8
3D-GENM
100
AcDbVertex
100
AcDbPolyFaceMeshVertex
 10
4.97051703929901
 20
-2.781249940395354
 30
-1.589863836765289
 70
   192
  0
VERTEX
  5
4E1
330
4DC
100
AcDbEntity
  8
3D-GENM
100
AcDbVertex
100
AcDbPolyFaceMeshVertex
 10
4.97051703929901
 20
-2.675733268260955
 30
-1.546157419681548
 70
   192
  0
VERTEX
  5
4E2
330
4DC
100
AcDbEntity
  8
3D-GENM
100
AcDbVertex
100
AcDbPolyFaceMeshVertex
 10
4.97051703929901
 20
-2.562500059604644
 30
-1.531250059604644
 70
   192
  0
VERTEX
  5
4E3
330
4DC
100
AcDbEntity
  8
3D-GENM
100
AcDbVertex
100
AcDbPolyFaceMeshVertex
 10
4.97051703929901
 20
-2.449266672134398
 30
-1.546157419681548
 70
   192
  0
VERTEX
  5
4E4
330
4DC
100
AcDbEntity
  8
3D-GENM
100
AcDbVertex
100
AcDbPolyFaceMeshVertex
 10
4.97051703929901
 20
-2.343749999999999
 30
-1.589863836765289
 70
   192
  0
VERTEX
  5
4E5
330
4DC
100
AcDbEntity
  8
3D-GENM
100
AcDbVertex
100
AcDbPolyFaceMeshVertex
 10
4.97051703929901
 20
-2.253140866756438
 30
-1.659390807151794
 70
   192
  0
VERTEX
  5
4E6
330
4DC
100
AcDbEntity
  8
3D-GENM
100
AcDbVertex
100
AcDbPolyFaceMeshVertex
 10
4.97051703929901
 20
-2.183613896369933
 30
-1.749999940395355
 70
   192
  0
VERTEX
  5
4E7
330
4DC
100
AcDbEntity
  8
3D-GENM
100
AcDbVertex
100
AcDbPolyFaceMeshVertex
 10
4.97051703929901
 20
-2.139907479286193
 30
-1.855516612529754
 70
   192
  0
VERTEX
  5
4E8
330
4DC
100
AcDbEntity
  8
3D-GENM
100
AcDbVertex
100
AcDbPolyFaceMeshVertex
 10
4.97051703929901
 20
-2.124999940395354
 30
-1.968749999999999
 70
   192
  0
VERTEX
  5
4E9
330
4DC
100
AcDbEntity
  8
3D-GENM
100
AcDbVertex
100
AcDbPolyFaceMeshVertex
 10
4.97051703929901
 20
-2.139907479286193
 30
-2.081983387470244
 70
   192
  0
VERTEX
  5
4EA
330
4DC
100
AcDbEntity
  8
3D-GENM
100
AcDbVertex
100
AcDbPolyFaceMeshVertex
 10
4.97051703929901
 20
-2.183613896369933
 30
-2.187500059604644
 70
   192
  0
VERTEX
  5
4EB
330
4DC
100
AcDbEntity
  8
3D-GENM
100
AcDbVertex
100
AcDbPolyFaceMeshVertex
 10
4.97051703929901
 20
-2.253140866756438
 30
-2.278109192848205
 70
   192
  0
VERTEX
  5
4EC
330
4DC
100
AcDbEntity
  8
3D-GENM
100
AcDbVertex
100
AcDbPolyFaceMeshVertex
 10
4.97051703929901
 20
-2.343749999999999
 30
-2.34763616323471
 70
   192
  0
VERTEX
  5
4ED
330
4DC
100
AcDbEntity
  8
3D-GENM
100
AcDbVertex
100
AcDbPolyFaceMeshVertex
 10
4.97051703929901
 20
-2.449266672134398
 30
-2.39134258031845
 70
   192
  0
VERTEX
  5
4EE
330
4DC
100
AcDbEntity
  8
3D-GENM
100
AcDbVertex
100
AcDbPolyFaceMeshVertex
 10
4.97051703929901
 20
-2.562500059604644
 30
-2.406249940395354
 70
   192
  0
VERTEX
  5
4EF
330
4DC
100
AcDbEntity
  8
3D-GENM
100
AcDbVertex
100
AcDbPolyFaceMeshVertex
 10
4.97051703929901
 20
-2.675733268260955
 30
-2.39134258031845
 70
   192
  0
VERTEX
  5
4F0
330
4DC
100
AcDbEntity
  8
3D-GENM
100
AcDbVertex
100
AcDbPolyFaceMeshVertex
 10
4.97051703929901
 20
-2.781249940395354
 30
-2.34763616323471
 70
   192
  0
VERTEX
  5
4F1
330
4DC
100
AcDbEntity
  8
3D-GENM
100
AcDbVertex
100
AcDbPolyFaceMeshVertex
 10
4.97051703929901
 20
-2.871859252452849
 30
-2.278109192848205
 70
   192
  0
VERTEX
  5
4F2
330
4DC
100
AcDbEntity
  8
3D-GENM
100
AcDbVertex
100
AcDbPolyFaceMeshVertex
 10
4.97051703929901
 20
-2.94138604402542
 30
-2.187500059604644
 70
   192
  0
VERTEX
  5
4F3
330
4DC
100
AcDbEntity
  8
3D-GENM
100
AcDbVertex
100
AcDbPolyFaceMeshVertex
 10
4.97051703929901
 20
-2.985092461109161
 30
-2.081983387470244
 70
   192
  0
VERTEX
  5
4F4
330
4DC
100
AcDbEntity
  8
3D-GENM
100
AcDbVertex
100
AcDbPolyFaceMeshVertex
 10
4.97051703929901
 20
-2.999999999999999
 30
-1.968749999999999
 70
   192
  0
VERTEX
  5
4F5
330
4DC
100
AcDbEntity
  8
3D-GENM
100
AcDbFaceRecord
 10
0.0
 20
0.0
 30
0.0
 70
   128
 71
     6
 72
    -5
 73
     7
  0
VERTEX
  5
4F6
330
4DC
100
AcDbEntity
  8
3D-GENM
100
AcDbFaceRecord
 10
0.0
 20
0.0
 30
0.0
 70
   128
 71
     9
 72
     8
 73
    -7
 74
   -23
  0
VERTEX
  5
4F7
330
4DC
100
AcDbEntity
  8
3D-GENM
100
AcDbFaceRecord
 10
0.0
 20
0.0
 30
0.0
 70
   128
 71
    10
 72
    -9
 73
   -13
 74
    11
  0
VERTEX
  5
4F8
330
4DC
100
AcDbEntity
  8
3D-GENM
100
AcDbFaceRecord
 10
0.0
 20
0.0
 30
0.0
 70
   128
 71
    -3
 72
   -23
 73
    -7
 74
    -5
  0
VERTEX
  5
4F9
330
4DC
100
AcDbEntity
  8
3D-GENM
100
AcDbFaceRecord
 10
0.0
 20
0.0
 30
0.0
 70
   128
 71
     4
 72
    -3
 73
     5
  0
VERTEX
  5
4FA
330
4DC
100
AcDbEntity
  8
3D-GENM
100
AcDbFaceRecord
 10
0.0
 20
0.0
 30
0.0
 70
   128
 71
     2
 72
    -1
 73
   -23
 74
     3
  0
VERTEX
  5
4FB
330
4DC
100
AcDbEntity
  8
3D-GENM
100
AcDbFaceRecord
 10
0.0
 20
0.0
 30
0.0
 70
   128
 71
     1
 72
    24
 73
   -23
  0
VERTEX
  5
4FC
330
4DC
100
AcDbEntity
  8
3D-GENM
100
AcDbFaceRecord
 10
0.0
 20
0.0
 30
0.0
 70
   128
 71
   -13
 72
    -9
 73
   -23
 74
    14
  0
VERTEX
  5
4FD
330
4DC
100
AcDbEntity
  8
3D-GENM
100
AcDbFaceRecord
 10
0.0
 20
0.0
 30
0.0
 70
   128
 71
    17
 72
    16
 73
    15
 74
   -14
  0
VERTEX
  5
4FE
330
4DC
100
AcDbEntity
  8
3D-GENM
100
AcDbFaceRecord
 10
0.0
 20
0.0
 30
0.0
 70
   128
 71
   -19
 72
   -17
 73
   -14
 74
   -22
  0
VERTEX
  5
4FF
330
4DC
100
AcDbEntity
  8
3D-GENM
100
AcDbFaceRecord
 10
0.0
 20
0.0
 30
0.0
 70
   128
 71
    22
 72
    21
 73
    20
 74
   -19
  0
VERTEX
  5
500
330
4DC
100
AcDbEntity
  8
3D-GENM
100
AcDbFaceRecord
 10
0.0
 20
0.0
 30
0.0
 70
   128
 71
   -14
 72
    23
 73
   -22
  0
VERTEX
  5
501
330
4DC
100
AcDbEntity
  8
3D-GENM
100
AcDbFaceRecord
 10
0.0
 20
0.0
 30
0.0
 70
   128
 71
   -17
 72
    19
 73
    18
  0
VERTEX
  5
502
330
4DC
100
AcDbEntity
  8
3D-GENM
100
AcDbFaceRecord
 10
0.0
 20
0.0
 30
0.0
 70
   128
 71
    12
 72
   -11
 73
    13
  0
SEQEND
  5
503
330
4DC
100
AcDbEntity
  8
3D-GENM
  0
POLYLINE
  5
504
330
7F
100
AcDbEntity
  8
3D-GENM
100
AcDbPolyFaceMesh
 66
     1
 10
0.0
 20
0.0
 30
0.0
 70
    64
 71
    26
 72
    12
1001
REVIT
1002
{
1070
     4
1000
6208
1002
}
  0
VERTEX
  5
505
330
504
100
AcDbEntity
  8
3D-GENM
100
AcDbVertex
100
AcDbPolyFaceMeshVertex
 10
5.249999999999999
 20
-2.124999940395354
 30
-1.968749999999999
 70
   192
  0
VERTEX
  5
506
330
504
100
AcDbEntity
  8
3D-GENM
100
AcDbVertex
100
AcDbPolyFaceMeshVertex
 10
5.249999999999999
 20
-2.139907479286193
 30
-2.081983387470244
 70
   192
  0
VERTEX
  5
507
330
504
100
AcDbEntity
  8
3D-GENM
100
AcDbVertex
100
AcDbPolyFaceMeshVertex
 10
5.249999999999999
 20
-2.183613896369933
 30
-2.187500059604644
 70
   192
  0
VERTEX
  5
508
330
504
100
AcDbEntity
  8
3D-GENM
100
AcDbVertex
100
AcDbPolyFaceMeshVertex
 10
5.249999999999999
 20
-2.253140866756438
 30
-2.278109192848205
 70
   192
  0
VERTEX
  5
509
330
504
100
AcDbEntity
  8
3D-GENM
100
AcDbVertex
100
AcDbPolyFaceMeshVertex
 10
5.249999999999999
 20
-2.343749999999999
 30
-2.34763616323471
 70
   192
  0
VERTEX
  5
50A
330
504
100
AcDbEntity
  8
3D-GENM
100
AcDbVertex
100
AcDbPolyFaceMeshVertex
 10
5.249999999999999
 20
-2.449266672134398
 30
-2.39134258031845
 70
   192
  0
VERTEX
  5
50B
330
504
100
AcDbEntity
  8
3D-GENM
100
AcDbVertex
100
AcDbPolyFaceMeshVertex
 10
5.249999999999999
 20
-2.562500059604644
 30
-2.406249940395354
 70
   192
  0
VERTEX
  5
50C
330
504
100
AcDbEntity
  8
3D-GENM
100
AcDbVertex
100
AcDbPolyFaceMeshVertex
 10
5.249999999999999
 20
-2.675733268260955
 30
-2.39134258031845
 70
   192
  0
VERTEX
  5
50D
330
504
100
AcDbEntity
  8
3D-GENM
100
AcDbVertex
100
AcDbPolyFaceMeshVertex
 10
5.249999999999999
 20
-2.781249940395354
 30
-2.34763616323471
 70
   192
  0
VERTEX
  5
50E
330
504
100
AcDbEntity
  8
3D-GENM
100
AcDbVertex
100
AcDbPolyFaceMeshVertex
 10
5.249999999999999
 20
-2.871859252452849
 30
-2.278109192848205
 70
   192
  0
VERTEX
  5
50F
330
504
100
AcDbEntity
  8
3D-GENM
100
AcDbVertex
100
AcDbPolyFaceMeshVertex
 10
5.249999999999999
 20
-2.94138604402542
 30
-2.187500059604644
 70
   192
  0
VERTEX
  5
510
330
504
100
AcDbEntity
  8
3D-GENM
100
AcDbVertex
100
AcDbPolyFaceMeshVertex
 10
5.249999999999999
 20
-2.985092461109161
 30
-2.081983387470244
 70
   192
  0
VERTEX
  5
511
330
504
100
AcDbEntity
  8
3D-GENM
100
AcDbVertex
100
AcDbPolyFaceMeshVertex
 10
5.249999999999999
 20
-2.999999999999999
 30
-1.968749999999999
 70
   192
  0
VERTEX
  5
512
330
504
100
AcDbEntity
  8
3D-GENM
100
AcDbVertex
100
AcDbPolyFaceMeshVertex
 10
4.97051703929901
 20
-2.999999999999999
 30
-1.968749999999999
 70
   192
  0
VERTEX
  5
513
330
504
100
AcDbEntity
  8
3D-GENM
100
AcDbVertex
100
AcDbPolyFaceMeshVertex
 10
4.97051703929901
 20
-2.985092461109161
 30
-2.081983387470244
 70
   192
  0
VERTEX
  5
514
330
504
100
AcDbEntity
  8
3D-GENM
100
AcDbVertex
100
AcDbPolyFaceMeshVertex
 10
4.97051703929901
 20
-2.94138604402542
 30
-2.187500059604644
 70
   192
  0
VERTEX
  5
515
330
504
100
AcDbEntity
  8
3D-GENM
100
AcDbVertex
100
AcDbPolyFaceMeshVertex
 10
4.97051703929901
 20
-2.871859252452849
 30
-2.278109192848205
 70
   192
  0
VERTEX
  5
516
330
504
100
AcDbEntity
  8
3D-GENM
100
AcDbVertex
100
AcDbPolyFaceMeshVertex
 10
4.97051703929901
 20
-2.781249940395354
 30
-2.34763616323471
 70
   192
  0
VERTEX
  5
517
330
504
100
AcDbEntity
  8
3D-GENM
100
AcDbVertex
100
AcDbPolyFaceMeshVertex
 10
4.97051703929901
 20
-2.675733268260955
 30
-2.39134258031845
 70
   192
  0
VERTEX
  5
518
330
504
100
AcDbEntity
  8
3D-GENM
100
AcDbVertex
100
AcDbPolyFaceMeshVertex
 10
4.97051703929901
 20
-2.562500059604644
 30
-2.406249940395354
 70
   192
  0
VERTEX
  5
519
330
504
100
AcDbEntity
  8
3D-GENM
100
AcDbVertex
100
AcDbPolyFaceMeshVertex
 10
4.97051703929901
 20
-2.449266672134398
 30
-2.39134258031845
 70
   192
  0
VERTEX
  5
51A
330
504
100
AcDbEntity
  8
3D-GENM
100
AcDbVertex
100
AcDbPolyFaceMeshVertex
 10
4.97051703929901
 20
-2.343749999999999
 30
-2.34763616323471
 70
   192
  0
VERTEX
  5
51B
330
504
100
AcDbEntity
  8
3D-GENM
100
AcDbVertex
100
AcDbPolyFaceMeshVertex
 10
4.97051703929901
 20
-2.253140866756438
 30
-2.278109192848205
 70
   192
  0
VERTEX
  5
51C
330
504
100
AcDbEntity
  8
3D-GENM
100
AcDbVertex
100
AcDbPolyFaceMeshVertex
 10
4.97051703929901
 20
-2.183613896369933
 30
-2.187500059604644
 70
   192
  0
VERTEX
  5
51D
330
504
100
AcDbEntity
  8
3D-GENM
100
AcDbVertex
100
AcDbPolyFaceMeshVertex
 10
4.97051703929901
 20
-2.139907479286193
 30
-2.081983387470244
 70
   192
  0
VERTEX
  5
51E
330
504
100
AcDbEntity
  8
3D-GENM
100
AcDbVertex
100
AcDbPolyFaceMeshVertex
 10
4.97051703929901
 20
-2.124999940395354
 30
-1.968749999999999
 70
   192
  0
VERTEX
  5
51F
330
504
100
AcDbEntity
  8
3D-GENM
100
AcDbFaceRecord
 10
0.0
 20
0.0
 30
0.0
 70
   128
 71
   -12
 72
    15
 73
    14
 74
    13
  0
VERTEX
  5
520
330
504
100
AcDbEntity
  8
3D-GENM
100
AcDbFaceRecord
 10
0.0
 20
0.0
 30
0.0
 70
   128
 71
   -11
 72
    16
 73
   -15
 74
    12
  0
VERTEX
  5
521
330
504
100
AcDbEntity
  8
3D-GENM
100
AcDbFaceRecord
 10
0.0
 20
0.0
 30
0.0
 70
   128
 71
    -9
 72
    18
 73
   -17
 74
    10
  0
VERTEX
  5
522
330
504
100
AcDbEntity
  8
3D-GENM
100
AcDbFaceRecord
 10
0.0
 20
0.0
 30
0.0
 70
   128
 71
   -10
 72
    17
 73
   -16
 74
    11
  0
VERTEX
  5
523
330
504
100
AcDbEntity
  8
3D-GENM
100
AcDbFaceRecord
 10
0.0
 20
0.0
 30
0.0
 70
   128
 71
    -8
 72
    19
 73
   -18
 74
     9
  0
VERTEX
  5
524
330
504
100
AcDbEntity
  8
3D-GENM
100
AcDbFaceRecord
 10
0.0
 20
0.0
 30
0.0
 70
   128
 71
   -19
 72
     8
 73
    -7
 74
    20
  0
VERTEX
  5
525
330
504
100
AcDbEntity
  8
3D-GENM
100
AcDbFaceRecord
 10
0.0
 20
0.0
 30
0.0
 70
   128
 71
    -6
 72
    21
 73
   -20
 74
     7
  0
VERTEX
  5
526
330
504
100
AcDbEntity
  8
3D-GENM
100
AcDbFaceRecord
 10
0.0
 20
0.0
 30
0.0
 70
   128
 71
    -5
 72
    22
 73
   -21
 74
     6
  0
VERTEX
  5
527
330
504
100
AcDbEntity
  8
3D-GENM
100
AcDbFaceRecord
 10
0.0
 20
0.0
 30
0.0
 70
   128
 71
    -3
 72
    24
 73
   -23
 74
     4
  0
VERTEX
  5
528
330
504
100
AcDbEntity
  8
3D-GENM
100
AcDbFaceRecord
 10
0.0
 20
0.0
 30
0.0
 70
   128
 71
    -4
 72
    23
 73
   -22
 74
     5
  0
VERTEX
  5
529
330
504
100
AcDbEntity
  8
3D-GENM
100
AcDbFaceRecord
 10
0.0
 20
0.0
 30
0.0
 70
   128
 71
    -2
 72
    25
 73
   -24
 74
     3
  0
VERTEX
  5
52A
330
504
100
AcDbEntity
  8
3D-GENM
100
AcDbFaceRecord
 10
0.0
 20
0.0
 30
0.0
 70
   128
 71
   -25
 72
     2
 73
     1
 74
    26
  0
SEQEND
  5
52B
330
504
100
AcDbEntity
  8
3D-GENM
  0
POLYLINE
  5
52C
330
7F
100
AcDbEntity
  8
3D-GENM
100
AcDbPolyFaceMesh
 66
     1
 10
0.0
 20
0.0
 30
0.0
 70
    64
 71
    26
 72
    12
1001
REVIT
1002
{
1070
     4
1000
6208
1002
}
  0
VERTEX
  5
52D
330
52C
100
AcDbEntity
  8
3D-GENM
100
AcDbVertex
100
AcDbPolyFaceMeshVertex
 10
5.249999999999999
 20
-2.999999999999999
 30
-1.968749999999999
 70
   192
  0
VERTEX
  5
52E
330
52C
100
AcDbEntity
  8
3D-GENM
100
AcDbVertex
100
AcDbPolyFaceMeshVertex
 10
5.249999999999999
 20
-2.985092461109161
 30
-1.855516612529754
 70
   192
  0
VERTEX
  5
52F
330
52C
100
AcDbEntity
  8
3D-GENM
100
AcDbVertex
100
AcDbPolyFaceMeshVertex
 10
5.249999999999999
 20
-2.94138604402542
 30
-1.749999940395355
 70
   192
  0
VERTEX
  5
530
330
52C
100
AcDbEntity
  8
3D-GENM
100
AcDbVertex
100
AcDbPolyFaceMeshVertex
 10
5.249999999999999
 20
-2.871859252452849
 30
-1.659390807151794
 70
   192
  0
VERTEX
  5
531
330
52C
100
AcDbEntity
  8
3D-GENM
100
AcDbVertex
100
AcDbPolyFaceMeshVertex
 10
5.249999999999999
 20
-2.781249940395354
 30
-1.589863836765289
 70
   192
  0
VERTEX
  5
532
330
52C
100
AcDbEntity
  8
3D-GENM
100
AcDbVertex
100
AcDbPolyFaceMeshVertex
 10
5.249999999999999
 20
-2.675733268260955
 30
-1.546157419681548
 70
   192
  0
VERTEX
  5
533
330
52C
100
AcDbEntity
  8
3D-GENM
100
AcDbVertex
100
AcDbPolyFaceMeshVertex
 10
5.249999999999999
 20
-2.562500059604644
 30
-1.531250059604644
 70
   192
  0
VERTEX
  5
534
330
52C
100
AcDbEntity
  8
3D-GENM
100
AcDbVertex
100
AcDbPolyFaceMeshVertex
 10
5.249999999999999
 20
-2.449266672134398
 30
-1.546157419681548
 70
   192
  0
VERTEX
  5
535
330
52C
100
AcDbEntity
  8
3D-GENM
100
AcDbVertex
100
AcDbPolyFaceMeshVertex
 10
5.249999999999999
 20
-2.343749999999999
 30
-1.589863836765289
 70
   192
  0
VERTEX
  5
536
330
52C
100
AcDbEntity
  8
3D-GENM
100
AcDbVertex
100
AcDbPolyFaceMeshVertex
 10
5.249999999999999
 20
-2.253140866756438
 30
-1.659390807151794
 70
   192
  0
VERTEX
  5
537
330
52C
100
AcDbEntity
  8
3D-GENM
100
AcDbVertex
100
AcDbPolyFaceMeshVertex
 10
5.249999999999999
 20
-2.183613896369933
 30
-1.749999940395355
 70
   192
  0
VERTEX
  5
538
330
52C
100
AcDbEntity
  8
3D-GENM
100
AcDbVertex
100
AcDbPolyFaceMeshVertex
 10
5.249999999999999
 20
-2.139907479286193
 30
-1.855516612529754
 70
   192
  0
VERTEX
  5
539
330
52C
100
AcDbEntity
  8
3D-GENM
100
AcDbVertex
100
AcDbPolyFaceMeshVertex
 10
5.249999999999999
 20
-2.124999940395354
 30
-1.968749999999999
 70
   192
  0
VERTEX
  5
53A
330
52C
100
AcDbEntity
  8
3D-GENM
100
AcDbVertex
100
AcDbPolyFaceMeshVertex
 10
4.97051703929901
 20
-2.124999940395354
 30
-1.968749999999999
 70
   192
  0
VERTEX
  5
53B
330
52C
100
AcDbEntity
  8
3D-GENM
100
AcDbVertex
100
AcDbPolyFaceMeshVertex
 10
4.97051703929901
 20
-2.139907479286193
 30
-1.855516612529754
 70
   192
  0
VERTEX
  5
53C
330
52C
100
AcDbEntity
  8
3D-GENM
100
AcDbVertex
100
AcDbPolyFaceMeshVertex
 10
4.97051703929901
 20
-2.183613896369933
 30
-1.749999940395355
 70
   192
  0
VERTEX
  5
53D
330
52C
100
AcDbEntity
  8
3D-GENM
100
AcDbVertex
100
AcDbPolyFaceMeshVertex
 10
4.97051703929901
 20
-2.253140866756438
 30
-1.659390807151794
 70
   192
  0
VERTEX
  5
53E
330
52C
100
AcDbEntity
  8
3D-GENM
100
AcDbVertex
100
AcDbPolyFaceMeshVertex
 10
4.97051703929901
 20
-2.343749999999999
 30
-1.589863836765289
 70
   192
  0
VERTEX
  5
53F
330
52C
100
AcDbEntity
  8
3D-GENM
100
AcDbVertex
100
AcDbPolyFaceMeshVertex
 10
4.97051703929901
 20
-2.449266672134398
 30
-1.546157419681548
 70
   192
  0
VERTEX
  5
540
330
52C
100
AcDbEntity
  8
3D-GENM
100
AcDbVertex
100
AcDbPolyFaceMeshVertex
 10
4.97051703929901
 20
-2.562500059604644
 30
-1.531250059604644
 70
   192
  0
VERTEX
  5
541
330
52C
100
AcDbEntity
  8
3D-GENM
100
AcDbVertex
100
AcDbPolyFaceMeshVertex
 10
4.97051703929901
 20
-2.675733268260955
 30
-1.546157419681548
 70
   192
  0
VERTEX
  5
542
330
52C
100
AcDbEntity
  8
3D-GENM
100
AcDbVertex
100
AcDbPolyFaceMeshVertex
 10
4.97051703929901
 20
-2.781249940395354
 30
-1.589863836765289
 70
   192
  0
VERTEX
  5
543
330
52C
100
AcDbEntity
  8
3D-GENM
100
AcDbVertex
100
AcDbPolyFaceMeshVertex
 10
4.97051703929901
 20
-2.871859252452849
 30
-1.659390807151794
 70
   192
  0
VERTEX
  5
544
330
52C
100
AcDbEntity
  8
3D-GENM
100
AcDbVertex
100
AcDbPolyFaceMeshVertex
 10
4.97051703929901
 20
-2.94138604402542
 30
-1.749999940395355
 70
   192
  0
VERTEX
  5
545
330
52C
100
AcDbEntity
  8
3D-GENM
100
AcDbVertex
100
AcDbPolyFaceMeshVertex
 10
4.97051703929901
 20
-2.985092461109161
 30
-1.855516612529754
 70
   192
  0
VERTEX
  5
546
330
52C
100
AcDbEntity
  8
3D-GENM
100
AcDbVertex
100
AcDbPolyFaceMeshVertex
 10
4.97051703929901
 20
-2.999999999999999
 30
-1.968749999999999
 70
   192
  0
VERTEX
  5
547
330
52C
100
AcDbEntity
  8
3D-GENM
100
AcDbFaceRecord
 10
0.0
 20
0.0
 30
0.0
 70
   128
 71
   -12
 72
    15
 73
    14
 74
    13
  0
VERTEX
  5
548
330
52C
100
AcDbEntity
  8
3D-GENM
100
AcDbFaceRecord
 10
0.0
 20
0.0
 30
0.0
 70
   128
 71
   -11
 72
    16
 73
   -15
 74
    12
  0
VERTEX
  5
549
330
52C
100
AcDbEntity
  8
3D-GENM
100
AcDbFaceRecord
 10
0.0
 20
0.0
 30
0.0
 70
   128
 71
    -9
 72
    18
 73
   -17
 74
    10
  0
VERTEX
  5
54A
330
52C
100
AcDbEntity
  8
3D-GENM
100
AcDbFaceRecord
 10
0.0
 20
0.0
 30
0.0
 70
   128
 71
   -10
 72
    17
 73
   -16
 74
    11
  0
VERTEX
  5
54B
330
52C
100
AcDbEntity
  8
3D-GENM
100
AcDbFaceRecord
 10
0.0
 20
0.0
 30
0.0
 70
   128
 71
    -8
 72
    19
 73
   -18
 74
     9
  0
VERTEX
  5
54C
330
52C
100
AcDbEntity
  8
3D-GENM
100
AcDbFaceRecord
 10
0.0
 20
0.0
 30
0.0
 70
   128
 71
   -19
 72
     8
 73
    -7
 74
    20
  0
VERTEX
  5
54D
330
52C
100
AcDbEntity
  8
3D-GENM
100
AcDbFaceRecord
 10
0.0
 20
0.0
 30
0.0
 70
   128
 71
    -6
 72
    21
 73
   -20
 74
     7
  0
VERTEX
  5
54E
330
52C
100
AcDbEntity
  8
3D-GENM
100
AcDbFaceRecord
 10
0.0
 20
0.0
 30
0.0
 70
   128
 71
    -5
 72
    22
 73
   -21
 74
     6
  0
VERTEX
  5
54F
330
52C
100
AcDbEntity
  8
3D-GENM
100
AcDbFaceRecord
 10
0.0
 20
0.0
 30
0.0
 70
   128
 71
    -3
 72
    24
 73
   -23
 74
     4
  0
VERTEX
  5
550
330
52C
100
AcDbEntity
  8
3D-GENM
100
AcDbFaceRecord
 10
0.0
 20
0.0
 30
0.0
 70
   128
 71
    -4
 72
    23
 73
   -22
 74
     5
  0
VERTEX
  5
551
330
52C
100
AcDbEntity
  8
3D-GENM
100
AcDbFaceRecord
 10
0.0
 20
0.0
 30
0.0
 70
   128
 71
    -2
 72
    25
 73
   -24
 74
     3
  0
VERTEX
  5
552
330
52C
100
AcDbEntity
  8
3D-GENM
100
AcDbFaceRecord
 10
0.0
 20
0.0
 30
0.0
 70
   128
 71
   -25
 72
     2
 73
     1
 74
    26
  0
SEQEND
  5
553
330
52C
100
AcDbEntity
  8
3D-GENM
  0
POLYLINE
  5
554
330
7F
100
AcDbEntity
  8
3D-GENM
100
AcDbPolyFaceMesh
 66
     1
 10
0.0
 20
0.0
 30
0.0
 70
    64
 71
    24
 72
    13
1001
REVIT
1002
{
1070
     4
1000
6208
1002
}
  0
VERTEX
  5
555
330
554
100
AcDbEntity
  8
3D-GENM
100
AcDbVertex
100
AcDbPolyFaceMeshVertex
 10
-4.937291622161864
 20
-2.985092461109161
 30
-2.081983387470244
 70
   192
  0
VERTEX
  5
556
330
554
100
AcDbEntity
  8
3D-GENM
100
AcDbVertex
100
AcDbPolyFaceMeshVertex
 10
-4.937291622161864
 20
-2.94138604402542
 30
-2.187500059604644
 70
   192
  0
VERTEX
  5
557
330
554
100
AcDbEntity
  8
3D-GENM
100
AcDbVertex
100
AcDbPolyFaceMeshVertex
 10
-4.937291622161864
 20
-2.871859252452849
 30
-2.278109192848205
 70
   192
  0
VERTEX
  5
558
330
554
100
AcDbEntity
  8
3D-GENM
100
AcDbVertex
100
AcDbPolyFaceMeshVertex
 10
-4.937291622161864
 20
-2.781249940395354
 30
-2.34763616323471
 70
   192
  0
VERTEX
  5
559
330
554
100
AcDbEntity
  8
3D-GENM
100
AcDbVertex
100
AcDbPolyFaceMeshVertex
 10
-4.937291622161864
 20
-2.675733268260955
 30
-2.39134258031845
 70
   192
  0
VERTEX
  5
55A
330
554
100
AcDbEntity
  8
3D-GENM
100
AcDbVertex
100
AcDbPolyFaceMeshVertex
 10
-4.937291622161864
 20
-2.562500059604644
 30
-2.406249940395354
 70
   192
  0
VERTEX
  5
55B
330
554
100
AcDbEntity
  8
3D-GENM
100
AcDbVertex
100
AcDbPolyFaceMeshVertex
 10
-4.937291622161864
 20
-2.449266672134398
 30
-2.39134258031845
 70
   192
  0
VERTEX
  5
55C
330
554
100
AcDbEntity
  8
3D-GENM
100
AcDbVertex
100
AcDbPolyFaceMeshVertex
 10
-4.937291622161864
 20
-2.343749999999999
 30
-2.34763616323471
 70
   192
  0
VERTEX
  5
55D
330
554
100
AcDbEntity
  8
3D-GENM
100
AcDbVertex
100
AcDbPolyFaceMeshVertex
 10
-4.937291622161864
 20
-2.253140866756438
 30
-2.278109192848205
 70
   192
  0
VERTEX
  5
55E
330
554
100
AcDbEntity
  8
3D-GENM
100
AcDbVertex
100
AcDbPolyFaceMeshVertex
 10
-4.937291622161864
 20
-2.183613896369933
 30
-2.187500059604644
 70
   192
  0
VERTEX
  5
55F
330
554
100
AcDbEntity
  8
3D-GENM
100
AcDbVertex
100
AcDbPolyFaceMeshVertex
 10
-4.937291622161864
 20
-2.139907479286193
 30
-2.081983387470244
 70
   192
  0
VERTEX
  5
560
330
554
100
AcDbEntity
  8
3D-GENM
100
AcDbVertex
100
AcDbPolyFaceMeshVertex
 10
-4.937291622161864
 20
-2.124999940395354
 30
-1.968749999999999
 70
   192
  0
VERTEX
  5
561
330
554
100
AcDbEntity
  8
3D-GENM
100
AcDbVertex
100
AcDbPolyFaceMeshVertex
 10
-4.937291622161864
 20
-2.139907479286193
 30
-1.855516612529754
 70
   192
  0
VERTEX
  5
562
330
554
100
AcDbEntity
  8
3D-GENM
100
AcDbVertex
100
AcDbPolyFaceMeshVertex
 10
-4.937291622161864
 20
-2.183613896369933
 30
-1.749999940395355
 70
   192
  0
VERTEX
  5
563
330
554
100
AcDbEntity
  8
3D-GENM
100
AcDbVertex
100
AcDbPolyFaceMeshVertex
 10
-4.937291622161864
 20
-2.253140866756438
 30
-1.659390807151794
 70
   192
  0
VERTEX
  5
564
330
554
100
AcDbEntity
  8
3D-GENM
100
AcDbVertex
100
AcDbPolyFaceMeshVertex
 10
-4.937291622161864
 20
-2.343749999999999
 30
-1.589863836765289
 70
   192
  0
VERTEX
  5
565
330
554
100
AcDbEntity
  8
3D-GENM
100
AcDbVertex
100
AcDbPolyFaceMeshVertex
 10
-4.937291622161864
 20
-2.449266672134398
 30
-1.546157419681548
 70
   192
  0
VERTEX
  5
566
330
554
100
AcDbEntity
  8
3D-GENM
100
AcDbVertex
100
AcDbPolyFaceMeshVertex
 10
-4.937291622161864
 20
-2.562500059604644
 30
-1.531250059604644
 70
   192
  0
VERTEX
  5
567
330
554
100
AcDbEntity
  8
3D-GENM
100
AcDbVertex
100
AcDbPolyFaceMeshVertex
 10
-4.937291622161864
 20
-2.675733268260955
 30
-1.546157419681548
 70
   192
  0
VERTEX
  5
568
330
554
100
AcDbEntity
  8
3D-GENM
100
AcDbVertex
100
AcDbPolyFaceMeshVertex
 10
-4.937291622161864
 20
-2.781249940395354
 30
-1.589863836765289
 70
   192
  0
VERTEX
  5
569
330
554
100
AcDbEntity
  8
3D-GENM
100
AcDbVertex
100
AcDbPolyFaceMeshVertex
 10
-4.937291622161864
 20
-2.871859252452849
 30
-1.659390807151794
 70
   192
  0
VERTEX
  5
56A
330
554
100
AcDbEntity
  8
3D-GENM
100
AcDbVertex
100
AcDbPolyFaceMeshVertex
 10
-4.937291622161864
 20
-2.94138604402542
 30
-1.749999940395355
 70
   192
  0
VERTEX
  5
56B
330
554
100
AcDbEntity
  8
3D-GENM
100
AcDbVertex
100
AcDbPolyFaceMeshVertex
 10
-4.937291622161864
 20
-2.985092461109161
 30
-1.855516612529754
 70
   192
  0
VERTEX
  5
56C
330
554
100
AcDbEntity
  8
3D-GENM
100
AcDbVertex
100
AcDbPolyFaceMeshVertex
 10
-4.937291622161864
 20
-2.999999999999999
 30
-1.968749999999999
 70
   192
  0
VERTEX
  5
56D
330
554
100
AcDbEntity
  8
3D-GENM
100
AcDbFaceRecord
 10
0.0
 20
0.0
 30
0.0
 70
   128
 71
     9
 72
     8
 73
    -7
 74
    10
  0
VERTEX
  5
56E
330
554
100
AcDbEntity
  8
3D-GENM
100
AcDbFaceRecord
 10
0.0
 20
0.0
 30
0.0
 70
   128
 71
    -2
 72
   -23
 73
   -10
 74
    -7
  0
VERTEX
  5
56F
330
554
100
AcDbEntity
  8
3D-GENM
100
AcDbFaceRecord
 10
0.0
 20
0.0
 30
0.0
 70
   128
 71
    11
 72
   -10
 73
    23
 74
   -22
  0
VERTEX
  5
570
330
554
100
AcDbEntity
  8
3D-GENM
100
AcDbFaceRecord
 10
0.0
 20
0.0
 30
0.0
 70
   128
 71
    -2
 72
     5
 73
     4
 74
     3
  0
VERTEX
  5
571
330
554
100
AcDbEntity
  8
3D-GENM
100
AcDbFaceRecord
 10
0.0
 20
0.0
 30
0.0
 70
   128
 71
     7
 72
     6
 73
    -5
 74
    -2
  0
VERTEX
  5
572
330
554
100
AcDbEntity
  8
3D-GENM
100
AcDbFaceRecord
 10
0.0
 20
0.0
 30
0.0
 70
   128
 71
   -23
 72
     2
 73
     1
 74
    24
  0
VERTEX
  5
573
330
554
100
AcDbEntity
  8
3D-GENM
100
AcDbFaceRecord
 10
0.0
 20
0.0
 30
0.0
 70
   128
 71
   -14
 72
    12
 73
   -11
 74
    15
  0
VERTEX
  5
574
330
554
100
AcDbEntity
  8
3D-GENM
100
AcDbFaceRecord
 10
0.0
 20
0.0
 30
0.0
 70
   128
 71
   -17
 72
   -15
 73
   -11
 74
   -19
  0
VERTEX
  5
575
330
554
100
AcDbEntity
  8
3D-GENM
100
AcDbFaceRecord
 10
0.0
 20
0.0
 30
0.0
 70
   128
 71
    16
 72
   -15
 73
    17
  0
VERTEX
  5
576
330
554
100
AcDbEntity
  8
3D-GENM
100
AcDbFaceRecord
 10
0.0
 20
0.0
 30
0.0
 70
   128
 71
    18
 72
   -17
 73
    19
  0
VERTEX
  5
577
330
554
100
AcDbEntity
  8
3D-GENM
100
AcDbFaceRecord
 10
0.0
 20
0.0
 30
0.0
 70
   128
 71
    21
 72
    20
 73
   -19
 74
    22
  0
VERTEX
  5
578
330
554
100
AcDbEntity
  8
3D-GENM
100
AcDbFaceRecord
 10
0.0
 20
0.0
 30
0.0
 70
   128
 71
   -19
 72
   -11
 73
   -22
  0
VERTEX
  5
579
330
554
100
AcDbEntity
  8
3D-GENM
100
AcDbFaceRecord
 10
0.0
 20
0.0
 30
0.0
 70
   128
 71
    14
 72
    13
 73
   -12
  0
SEQEND
  5
57A
330
554
100
AcDbEntity
  8
3D-GENM
  0
POLYLINE
  5
57B
330
7F
100
AcDbEntity
  8
3D-GENM
100
AcDbPolyFaceMesh
 66
     1
 10
0.0
 20
0.0
 30
0.0
 70
    64
 71
    26
 72
    12
1001
REVIT
1002
{
1070
     4
1000
6208
1002
}
  0
VERTEX
  5
57C
330
57B
100
AcDbEntity
  8
3D-GENM
100
AcDbVertex
100
AcDbPolyFaceMeshVertex
 10
-5.249999999999999
 20
-2.999999999999999
 30
-1.968749999999999
 70
   192
  0
VERTEX
  5
57D
330
57B
100
AcDbEntity
  8
3D-GENM
100
AcDbVertex
100
AcDbPolyFaceMeshVertex
 10
-5.249999999999999
 20
-2.985092461109161
 30
-2.081983387470244
 70
   192
  0
VERTEX
  5
57E
330
57B
100
AcDbEntity
  8
3D-GENM
100
AcDbVertex
100
AcDbPolyFaceMeshVertex
 10
-5.249999999999999
 20
-2.94138604402542
 30
-2.187500059604644
 70
   192
  0
VERTEX
  5
57F
330
57B
100
AcDbEntity
  8
3D-GENM
100
AcDbVertex
100
AcDbPolyFaceMeshVertex
 10
-5.249999999999999
 20
-2.871859252452849
 30
-2.278109192848205
 70
   192
  0
VERTEX
  5
580
330
57B
100
AcDbEntity
  8
3D-GENM
100
AcDbVertex
100
AcDbPolyFaceMeshVertex
 10
-5.249999999999999
 20
-2.781249940395354
 30
-2.34763616323471
 70
   192
  0
VERTEX
  5
581
330
57B
100
AcDbEntity
  8
3D-GENM
100
AcDbVertex
100
AcDbPolyFaceMeshVertex
 10
-5.249999999999999
 20
-2.675733268260955
 30
-2.39134258031845
 70
   192
  0
VERTEX
  5
582
330
57B
100
AcDbEntity
  8
3D-GENM
100
AcDbVertex
100
AcDbPolyFaceMeshVertex
 10
-5.249999999999999
 20
-2.562500059604644
 30
-2.406249940395354
 70
   192
  0
VERTEX
  5
583
330
57B
100
AcDbEntity
  8
3D-GENM
100
AcDbVertex
100
AcDbPolyFaceMeshVertex
 10
-5.249999999999999
 20
-2.449266672134398
 30
-2.39134258031845
 70
   192
  0
VERTEX
  5
584
330
57B
100
AcDbEntity
  8
3D-GENM
100
AcDbVertex
100
AcDbPolyFaceMeshVertex
 10
-5.249999999999999
 20
-2.343749999999999
 30
-2.34763616323471
 70
   192
  0
VERTEX
  5
585
330
57B
100
AcDbEntity
  8
3D-GENM
100
AcDbVertex
100
AcDbPolyFaceMeshVertex
 10
-5.249999999999999
 20
-2.253140866756438
 30
-2.278109192848205
 70
   192
  0
VERTEX
  5
586
330
57B
100
AcDbEntity
  8
3D-GENM
100
AcDbVertex
100
AcDbPolyFaceMeshVertex
 10
-5.249999999999999
 20
-2.183613896369933
 30
-2.187500059604644
 70
   192
  0
VERTEX
  5
587
330
57B
100
AcDbEntity
  8
3D-GENM
100
AcDbVertex
100
AcDbPolyFaceMeshVertex
 10
-5.249999999999999
 20
-2.139907479286193
 30
-2.081983387470244
 70
   192
  0
VERTEX
  5
588
330
57B
100
AcDbEntity
  8
3D-GENM
100
AcDbVertex
100
AcDbPolyFaceMeshVertex
 10
-5.249999999999999
 20
-2.124999940395354
 30
-1.968749999999999
 70
   192
  0
VERTEX
  5
589
330
57B
100
AcDbEntity
  8
3D-GENM
100
AcDbVertex
100
AcDbPolyFaceMeshVertex
 10
-4.937291622161864
 20
-2.124999940395354
 30
-1.968749999999999
 70
   192
  0
VERTEX
  5
58A
330
57B
100
AcDbEntity
  8
3D-GENM
100
AcDbVertex
100
AcDbPolyFaceMeshVertex
 10
-4.937291622161864
 20
-2.139907479286193
 30
-2.081983387470244
 70
   192
  0
VERTEX
  5
58B
330
57B
100
AcDbEntity
  8
3D-GENM
100
AcDbVertex
100
AcDbPolyFaceMeshVertex
 10
-4.937291622161864
 20
-2.183613896369933
 30
-2.187500059604644
 70
   192
  0
VERTEX
  5
58C
330
57B
100
AcDbEntity
  8
3D-GENM
100
AcDbVertex
100
AcDbPolyFaceMeshVertex
 10
-4.937291622161864
 20
-2.253140866756438
 30
-2.278109192848205
 70
   192
  0
VERTEX
  5
58D
330
57B
100
AcDbEntity
  8
3D-GENM
100
AcDbVertex
100
AcDbPolyFaceMeshVertex
 10
-4.937291622161864
 20
-2.343749999999999
 30
-2.34763616323471
 70
   192
  0
VERTEX
  5
58E
330
57B
100
AcDbEntity
  8
3D-GENM
100
AcDbVertex
100
AcDbPolyFaceMeshVertex
 10
-4.937291622161864
 20
-2.449266672134398
 30
-2.39134258031845
 70
   192
  0
VERTEX
  5
58F
330
57B
100
AcDbEntity
  8
3D-GENM
100
AcDbVertex
100
AcDbPolyFaceMeshVertex
 10
-4.937291622161864
 20
-2.562500059604644
 30
-2.406249940395354
 70
   192
  0
VERTEX
  5
590
330
57B
100
AcDbEntity
  8
3D-GENM
100
AcDbVertex
100
AcDbPolyFaceMeshVertex
 10
-4.937291622161864
 20
-2.675733268260955
 30
-2.39134258031845
 70
   192
  0
VERTEX
  5
591
330
57B
100
AcDbEntity
  8
3D-GENM
100
AcDbVertex
100
AcDbPolyFaceMeshVertex
 10
-4.937291622161864
 20
-2.781249940395354
 30
-2.34763616323471
 70
   192
  0
VERTEX
  5
592
330
57B
100
AcDbEntity
  8
3D-GENM
100
AcDbVertex
100
AcDbPolyFaceMeshVertex
 10
-4.937291622161864
 20
-2.871859252452849
 30
-2.278109192848205
 70
   192
  0
VERTEX
  5
593
330
57B
100
AcDbEntity
  8
3D-GENM
100
AcDbVertex
100
AcDbPolyFaceMeshVertex
 10
-4.937291622161864
 20
-2.94138604402542
 30
-2.187500059604644
 70
   192
  0
VERTEX
  5
594
330
57B
100
AcDbEntity
  8
3D-GENM
100
AcDbVertex
100
AcDbPolyFaceMeshVertex
 10
-4.937291622161864
 20
-2.985092461109161
 30
-2.081983387470244
 70
   192
  0
VERTEX
  5
595
330
57B
100
AcDbEntity
  8
3D-GENM
100
AcDbVertex
100
AcDbPolyFaceMeshVertex
 10
-4.937291622161864
 20
-2.999999999999999
 30
-1.968749999999999
 70
   192
  0
VERTEX
  5
596
330
57B
100
AcDbEntity
  8
3D-GENM
100
AcDbFaceRecord
 10
0.0
 20
0.0
 30
0.0
 70
   128
 71
   -24
 72
     3
 73
    -2
 74
    25
  0
VERTEX
  5
597
330
57B
100
AcDbEntity
  8
3D-GENM
100
AcDbFaceRecord
 10
0.0
 20
0.0
 30
0.0
 70
   128
 71
   -25
 72
     2
 73
     1
 74
    26
  0
VERTEX
  5
598
330
57B
100
AcDbEntity
  8
3D-GENM
100
AcDbFaceRecord
 10
0.0
 20
0.0
 30
0.0
 70
   128
 71
   -21
 72
     6
 73
    -5
 74
    22
  0
VERTEX
  5
599
330
57B
100
AcDbEntity
  8
3D-GENM
100
AcDbFaceRecord
 10
0.0
 20
0.0
 30
0.0
 70
   128
 71
   -22
 72
     5
 73
    -4
 74
    23
  0
VERTEX
  5
59A
330
57B
100
AcDbEntity
  8
3D-GENM
100
AcDbFaceRecord
 10
0.0
 20
0.0
 30
0.0
 70
   128
 71
   -23
 72
     4
 73
    -3
 74
    24
  0
VERTEX
  5
59B
330
57B
100
AcDbEntity
  8
3D-GENM
100
AcDbFaceRecord
 10
0.0
 20
0.0
 30
0.0
 70
   128
 71
    -6
 72
    21
 73
   -20
 74
     7
  0
VERTEX
  5
59C
330
57B
100
AcDbEntity
  8
3D-GENM
100
AcDbFaceRecord
 10
0.0
 20
0.0
 30
0.0
 70
   128
 71
   -17
 72
    10
 73
    -9
 74
    18
  0
VERTEX
  5
59D
330
57B
100
AcDbEntity
  8
3D-GENM
100
AcDbFaceRecord
 10
0.0
 20
0.0
 30
0.0
 70
   128
 71
   -18
 72
     9
 73
    -8
 74
    19
  0
VERTEX
  5
59E
330
57B
100
AcDbEntity
  8
3D-GENM
100
AcDbFaceRecord
 10
0.0
 20
0.0
 30
0.0
 70
   128
 71
    14
 72
    13
 73
   -12
 74
    15
  0
VERTEX
  5
59F
330
57B
100
AcDbEntity
  8
3D-GENM
100
AcDbFaceRecord
 10
0.0
 20
0.0
 30
0.0
 70
   128
 71
   -15
 72
    12
 73
   -11
 74
    16
  0
VERTEX
  5
5A0
330
57B
100
AcDbEntity
  8
3D-GENM
100
AcDbFaceRecord
 10
0.0
 20
0.0
 30
0.0
 70
   128
 71
   -16
 72
    11
 73
   -10
 74
    17
  0
VERTEX
  5
5A1
330
57B
100
AcDbEntity
  8
3D-GENM
100
AcDbFaceRecord
 10
0.0
 20
0.0
 30
0.0
 70
   128
 71
   -19
 72
     8
 73
    -7
 74
    20
  0
SEQEND
  5
5A2
330
57B
100
AcDbEntity
  8
3D-GENM
  0
POLYLINE
  5
5A3
330
7F
100
AcDbEntity
  8
3D-GENM
100
AcDbPolyFaceMesh
 66
     1
 10
0.0
 20
0.0
 30
0.0
 70
    64
 71
    26
 72
    12
1001
REVIT
1002
{
1070
     4
1000
6208
1002
}
  0
VERTEX
  5
5A4
330
5A3
100
AcDbEntity
  8
3D-GENM
100
AcDbVertex
100
AcDbPolyFaceMeshVertex
 10
-5.249999999999999
 20
-2.124999940395354
 30
-1.968749999999999
 70
   192
  0
VERTEX
  5
5A5
330
5A3
100
AcDbEntity
  8
3D-GENM
100
AcDbVertex
100
AcDbPolyFaceMeshVertex
 10
-5.249999999999999
 20
-2.139907479286193
 30
-1.855516612529754
 70
   192
  0
VERTEX
  5
5A6
330
5A3
100
AcDbEntity
  8
3D-GENM
100
AcDbVertex
100
AcDbPolyFaceMeshVertex
 10
-5.249999999999999
 20
-2.183613896369933
 30
-1.749999940395355
 70
   192
  0
VERTEX
  5
5A7
330
5A3
100
AcDbEntity
  8
3D-GENM
100
AcDbVertex
100
AcDbPolyFaceMeshVertex
 10
-5.249999999999999
 20
-2.253140866756438
 30
-1.659390807151794
 70
   192
  0
VERTEX
  5
5A8
330
5A3
100
AcDbEntity
  8
3D-GENM
100
AcDbVertex
100
AcDbPolyFaceMeshVertex
 10
-5.249999999999999
 20
-2.343749999999999
 30
-1.589863836765289
 70
   192
  0
VERTEX
  5
5A9
330
5A3
100
AcDbEntity
  8
3D-GENM
100
AcDbVertex
100
AcDbPolyFaceMeshVertex
 10
-5.249999999999999
 20
-2.449266672134398
 30
-1.546157419681548
 70
   192
  0
VERTEX
  5
5AA
330
5A3
100
AcDbEntity
  8
3D-GENM
100
AcDbVertex
100
AcDbPolyFaceMeshVertex
 10
-5.249999999999999
 20
-2.562500059604644
 30
-1.531250059604644
 70
   192
  0
VERTEX
  5
5AB
330
5A3
100
AcDbEntity
  8
3D-GENM
100
AcDbVertex
100
AcDbPolyFaceMeshVertex
 10
-5.249999999999999
 20
-2.675733268260955
 30
-1.546157419681548
 70
   192
  0
VERTEX
  5
5AC
330
5A3
100
AcDbEntity
  8
3D-GENM
100
AcDbVertex
100
AcDbPolyFaceMeshVertex
 10
-5.249999999999999
 20
-2.781249940395354
 30
-1.589863836765289
 70
   192
  0
VERTEX
  5
5AD
330
5A3
100
AcDbEntity
  8
3D-GENM
100
AcDbVertex
100
AcDbPolyFaceMeshVertex
 10
-5.249999999999999
 20
-2.871859252452849
 30
-1.659390807151794
 70
   192
  0
VERTEX
  5
5AE
330
5A3
100
AcDbEntity
  8
3D-GENM
100
AcDbVertex
100
AcDbPolyFaceMeshVertex
 10
-5.249999999999999
 20
-2.94138604402542
 30
-1.749999940395355
 70
   192
  0
VERTEX
  5
5AF
330
5A3
100
AcDbEntity
  8
3D-GENM
100
AcDbVertex
100
AcDbPolyFaceMeshVertex
 10
-5.249999999999999
 20
-2.985092461109161
 30
-1.855516612529754
 70
   192
  0
VERTEX
  5
5B0
330
5A3
100
AcDbEntity
  8
3D-GENM
100
AcDbVertex
100
AcDbPolyFaceMeshVertex
 10
-5.249999999999999
 20
-2.999999999999999
 30
-1.968749999999999
 70
   192
  0
VERTEX
  5
5B1
330
5A3
100
AcDbEntity
  8
3D-GENM
100
AcDbVertex
100
AcDbPolyFaceMeshVertex
 10
-4.937291622161864
 20
-2.999999999999999
 30
-1.968749999999999
 70
   192
  0
VERTEX
  5
5B2
330
5A3
100
AcDbEntity
  8
3D-GENM
100
AcDbVertex
100
AcDbPolyFaceMeshVertex
 10
-4.937291622161864
 20
-2.985092461109161
 30
-1.855516612529754
 70
   192
  0
VERTEX
  5
5B3
330
5A3
100
AcDbEntity
  8
3D-GENM
100
AcDbVertex
100
AcDbPolyFaceMeshVertex
 10
-4.937291622161864
 20
-2.94138604402542
 30
-1.749999940395355
 70
   192
  0
VERTEX
  5
5B4
330
5A3
100
AcDbEntity
  8
3D-GENM
100
AcDbVertex
100
AcDbPolyFaceMeshVertex
 10
-4.937291622161864
 20
-2.871859252452849
 30
-1.659390807151794
 70
   192
  0
VERTEX
  5
5B5
330
5A3
100
AcDbEntity
  8
3D-GENM
100
AcDbVertex
100
AcDbPolyFaceMeshVertex
 10
-4.937291622161864
 20
-2.781249940395354
 30
-1.589863836765289
 70
   192
  0
VERTEX
  5
5B6
330
5A3
100
AcDbEntity
  8
3D-GENM
100
AcDbVertex
100
AcDbPolyFaceMeshVertex
 10
-4.937291622161864
 20
-2.675733268260955
 30
-1.546157419681548
 70
   192
  0
VERTEX
  5
5B7
330
5A3
100
AcDbEntity
  8
3D-GENM
100
AcDbVertex
100
AcDbPolyFaceMeshVertex
 10
-4.937291622161864
 20
-2.562500059604644
 30
-1.531250059604644
 70
   192
  0
VERTEX
  5
5B8
330
5A3
100
AcDbEntity
  8
3D-GENM
100
AcDbVertex
100
AcDbPolyFaceMeshVertex
 10
-4.937291622161864
 20
-2.449266672134398
 30
-1.546157419681548
 70
   192
  0
VERTEX
  5
5B9
330
5A3
100
AcDbEntity
  8
3D-GENM
100
AcDbVertex
100
AcDbPolyFaceMeshVertex
 10
-4.937291622161864
 20
-2.343749999999999
 30
-1.589863836765289
 70
   192
  0
VERTEX
  5
5BA
330
5A3
100
AcDbEntity
  8
3D-GENM
100
AcDbVertex
100
AcDbPolyFaceMeshVertex
 10
-4.937291622161864
 20
-2.253140866756438
 30
-1.659390807151794
 70
   192
  0
VERTEX
  5
5BB
330
5A3
100
AcDbEntity
  8
3D-GENM
100
AcDbVertex
100
AcDbPolyFaceMeshVertex
 10
-4.937291622161864
 20
-2.183613896369933
 30
-1.749999940395355
 70
   192
  0
VERTEX
  5
5BC
330
5A3
100
AcDbEntity
  8
3D-GENM
100
AcDbVertex
100
AcDbPolyFaceMeshVertex
 10
-4.937291622161864
 20
-2.139907479286193
 30
-1.855516612529754
 70
   192
  0
VERTEX
  5
5BD
330
5A3
100
AcDbEntity
  8
3D-GENM
100
AcDbVertex
100
AcDbPolyFaceMeshVertex
 10
-4.937291622161864
 20
-2.124999940395354
 30
-1.968749999999999
 70
   192
  0
VERTEX
  5
5BE
330
5A3
100
AcDbEntity
  8
3D-GENM
100
AcDbFaceRecord
 10
0.0
 20
0.0
 30
0.0
 70
   128
 71
   -24
 72
     3
 73
    -2
 74
    25
  0
VERTEX
  5
5BF
330
5A3
100
AcDbEntity
  8
3D-GENM
100
AcDbFaceRecord
 10
0.0
 20
0.0
 30
0.0
 70
   128
 71
   -25
 72
     2
 73
     1
 74
    26
  0
VERTEX
  5
5C0
330
5A3
100
AcDbEntity
  8
3D-GENM
100
AcDbFaceRecord
 10
0.0
 20
0.0
 30
0.0
 70
   128
 71
   -21
 72
     6
 73
    -5
 74
    22
  0
VERTEX
  5
5C1
330
5A3
100
AcDbEntity
  8
3D-GENM
100
AcDbFaceRecord
 10
0.0
 20
0.0
 30
0.0
 70
   128
 71
   -22
 72
     5
 73
    -4
 74
    23
  0
VERTEX
  5
5C2
330
5A3
100
AcDbEntity
  8
3D-GENM
100
AcDbFaceRecord
 10
0.0
 20
0.0
 30
0.0
 70
   128
 71
   -23
 72
     4
 73
    -3
 74
    24
  0
VERTEX
  5
5C3
330
5A3
100
AcDbEntity
  8
3D-GENM
100
AcDbFaceRecord
 10
0.0
 20
0.0
 30
0.0
 70
   128
 71
    -6
 72
    21
 73
   -20
 74
     7
  0
VERTEX
  5
5C4
330
5A3
100
AcDbEntity
  8
3D-GENM
100
AcDbFaceRecord
 10
0.0
 20
0.0
 30
0.0
 70
   128
 71
   -17
 72
    10
 73
    -9
 74
    18
  0
VERTEX
  5
5C5
330
5A3
100
AcDbEntity
  8
3D-GENM
100
AcDbFaceRecord
 10
0.0
 20
0.0
 30
0.0
 70
   128
 71
   -18
 72
     9
 73
    -8
 74
    19
  0
VERTEX
  5
5C6
330
5A3
100
AcDbEntity
  8
3D-GENM
100
AcDbFaceRecord
 10
0.0
 20
0.0
 30
0.0
 70
   128
 71
    14
 72
    13
 73
   -12
 74
    15
  0
VERTEX
  5
5C7
330
5A3
100
AcDbEntity
  8
3D-GENM
100
AcDbFaceRecord
 10
0.0
 20
0.0
 30
0.0
 70
   128
 71
   -15
 72
    12
 73
   -11
 74
    16
  0
VERTEX
  5
5C8
330
5A3
100
AcDbEntity
  8
3D-GENM
100
AcDbFaceRecord
 10
0.0
 20
0.0
 30
0.0
 70
   128
 71
   -16
 72
    11
 73
   -10
 74
    17
  0
VERTEX
  5
5C9
330
5A3
100
AcDbEntity
  8
3D-GENM
100
AcDbFaceRecord
 10
0.0
 20
0.0
 30
0.0
 70
   128
 71
   -19
 72
     8
 73
    -7
 74
    20
  0
SEQEND
  5
5CA
330
5A3
100
AcDbEntity
  8
3D-GENM
  0
POLYLINE
  5
5CB
330
7F
100
AcDbEntity
  8
3D-GENM
100
AcDbPolyFaceMesh
 66
     1
 10
0.0
 20
0.0
 30
0.0
 70
    64
 71
     6
 72
     2
1001
REVIT
1002
{
1070
     4
1000
6208
1002
}
  0
VERTEX
  5
5CC
330
5CB
100
AcDbEntity
  8
3D-GENM
100
AcDbVertex
100
AcDbPolyFaceMeshVertex
 10
4.999999880790709
 20
-7.74999976158142
 30
2.098473608493804
 70
   192
  0
VERTEX
  5
5CD
330
5CB
100
AcDbEntity
  8
3D-GENM
100
AcDbVertex
100
AcDbPolyFaceMeshVertex
 10
1.675300061702728
 20
-7.74999976158142
 30
2.51080173254013
 70
   192
  0
VERTEX
  5
5CE
330
5CB
100
AcDbEntity
  8
3D-GENM
100
AcDbVertex
100
AcDbPolyFaceMeshVertex
 10
-1.67522370815277
 20
-7.74999976158142
 30
2.510806381702422
 70
   192
  0
VERTEX
  5
5CF
330
5CB
100
AcDbEntity
  8
3D-GENM
100
AcDbVertex
100
AcDbPolyFaceMeshVertex
 10
-4.999999880790709
 20
-7.74999976158142
 30
2.098473608493804
 70
   192
  0
VERTEX
  5
5D0
330
5CB
100
AcDbEntity
  8
3D-GENM
100
AcDbVertex
100
AcDbPolyFaceMeshVertex
 10
-4.999999880790709
 20
-7.74999976158142
 30
2.000000059604644
 70
   192
  0
VERTEX
  5
5D1
330
5CB
100
AcDbEntity
  8
3D-GENM
100
AcDbVertex
100
AcDbPolyFaceMeshVertex
 10
4.999999880790709
 20
-7.74999976158142
 30
2.000000059604644
 70
   192
  0
VERTEX
  5
5D2
330
5CB
100
AcDbEntity
  8
3D-GENM
100
AcDbFaceRecord
 10
0.0
 20
0.0
 30
0.0
 70
   128
 71
     5
 72
    -6
 73
     3
 74
     4
  0
VERTEX
  5
5D3
330
5CB
100
AcDbEntity
  8
3D-GENM
100
AcDbFaceRecord
 10
0.0
 20
0.0
 30
0.0
 70
   128
 71
     6
 72
     1
 73
     2
 74
    -3
  0
SEQEND
  5
5D4
330
5CB
100
AcDbEntity
  8
3D-GENM
  0
POLYLINE
  5
5D5
330
7F
100
AcDbEntity
  8
3D-GENM
100
AcDbPolyFaceMesh
 66
     1
 10
0.0
 20
0.0
 30
0.0
 70
    64
 71
     6
 72
     2
1001
REVIT
1002
{
1070
     4
1000
6208
1002
}
  0
VERTEX
  5
5D6
330
5D5
100
AcDbEntity
  8
3D-GENM
100
AcDbVertex
100
AcDbPolyFaceMeshVertex
 10
4.999999880790709
 20
7.74999976158142
 30
2.000000059604644
 70
   192
  0
VERTEX
  5
5D7
330
5D5
100
AcDbEntity
  8
3D-GENM
100
AcDbVertex
100
AcDbPolyFaceMeshVertex
 10
-4.999999880790709
 20
7.74999976158142
 30
2.000000059604644
 70
   192
  0
VERTEX
  5
5D8
330
5D5
100
AcDbEntity
  8
3D-GENM
100
AcDbVertex
100
AcDbPolyFaceMeshVertex
 10
-4.999999880790709
 20
7.74999976158142
 30
2.098473608493804
 70
   192
  0
VERTEX
  5
5D9
330
5D5
100
AcDbEntity
  8
3D-GENM
100
AcDbVertex
100
AcDbPolyFaceMeshVertex
 10
-1.675300061702728
 20
7.74999976158142
 30
2.51080173254013
 70
   192
  0
VERTEX
  5
5DA
330
5D5
100
AcDbEntity
  8
3D-GENM
100
AcDbVertex
100
AcDbPolyFaceMeshVertex
 10
1.67522370815277
 20
7.74999976158142
 30
2.510806381702422
 70
   192
  0
VERTEX
  5
5DB
330
5D5
100
AcDbEntity
  8
3D-GENM
100
AcDbVertex
100
AcDbPolyFaceMeshVertex
 10
4.999999880790709
 20
7.74999976158142
 30
2.098473608493804
 70
   192
  0
VERTEX
  5
5DC
330
5D5
100
AcDbEntity
  8
3D-GENM
100
AcDbFaceRecord
 10
0.0
 20
0.0
 30
0.0
 70
   128
 71
     2
 72
     3
 73
     4
 74
    -5
  0
VERTEX
  5
5DD
330
5D5
100
AcDbEntity
  8
3D-GENM
100
AcDbFaceRecord
 10
0.0
 20
0.0
 30
0.0
 70
   128
 71
     1
 72
    -2
 73
     5
 74
     6
  0
SEQEND
  5
5DE
330
5D5
100
AcDbEntity
  8
3D-GENM
  0
POLYLINE
  5
5DF
330
7F
100
AcDbEntity
  8
3D-GENM
100
AcDbPolyFaceMesh
 66
     1
 10
0.0
 20
0.0
 30
0.0
 70
    64
 71
    57
 72
    53
1001
REVIT
1002
{
1070
     4
1000
6208
1002
}
  0
VERTEX
  5
5E0
330
5DF
100
AcDbEntity
  8
3D-GENM
100
AcDbVertex
100
AcDbPolyFaceMeshVertex
 10
-4.999999880790709
 20
-7.74999976158142
 30
2.098473608493804
 70
   192
  0
VERTEX
  5
5E1
330
5DF
100
AcDbEntity
  8
3D-GENM
100
AcDbVertex
100
AcDbPolyFaceMeshVertex
 10
-1.67522370815277
 20
-7.74999976158142
 30
2.510806381702422
 70
   192
  0
VERTEX
  5
5E2
330
5DF
100
AcDbEntity
  8
3D-GENM
100
AcDbVertex
100
AcDbPolyFaceMeshVertex
 10
1.675300061702728
 20
-7.74999976158142
 30
2.51080173254013
 70
   192
  0
VERTEX
  5
5E3
330
5DF
100
AcDbEntity
  8
3D-GENM
100
AcDbVertex
100
AcDbPolyFaceMeshVertex
 10
4.999999880790709
 20
-7.74999976158142
 30
2.098473608493804
 70
   192
  0
VERTEX
  5
5E4
330
5DF
100
AcDbEntity
  8
3D-GENM
100
AcDbVertex
100
AcDbPolyFaceMeshVertex
 10
5.190455317497252
 20
-7.712305784225462
 30
2.062112152576446
 70
   192
  0
VERTEX
  5
5E5
330
5DF
100
AcDbEntity
  8
3D-GENM
100
AcDbVertex
100
AcDbPolyFaceMeshVertex
 10
5.352321982383727
 20
-7.604780673980712
 30
2.030099272727965
 70
   192
  0
VERTEX
  5
5E6
330
5DF
100
AcDbEntity
  8
3D-GENM
100
AcDbVertex
100
AcDbPolyFaceMeshVertex
 10
5.461407423019408
 20
-7.442621469497679
 30
2.007948160171508
 70
   192
  0
VERTEX
  5
5E7
330
5DF
100
AcDbEntity
  8
3D-GENM
100
AcDbVertex
100
AcDbPolyFaceMeshVertex
 10
5.500000119209288
 20
-7.250000238418578
 30
2.000000059604644
 70
   192
  0
VERTEX
  5
5E8
330
5DF
100
AcDbEntity
  8
3D-GENM
100
AcDbVertex
100
AcDbPolyFaceMeshVertex
 10
5.500000119209288
 20
7.250000238418578
 30
2.000000059604644
 70
   192
  0
VERTEX
  5
5E9
330
5DF
100
AcDbEntity
  8
3D-GENM
100
AcDbVertex
100
AcDbPolyFaceMeshVertex
 10
5.461407423019408
 20
7.442621469497679
 30
2.007948160171508
 70
   192
  0
VERTEX
  5
5EA
330
5DF
100
AcDbEntity
  8
3D-GENM
100
AcDbVertex
100
AcDbPolyFaceMeshVertex
 10
5.352321982383727
 20
7.604780673980712
 30
2.030099272727965
 70
   192
  0
VERTEX
  5
5EB
330
5DF
100
AcDbEntity
  8
3D-GENM
100
AcDbVertex
100
AcDbPolyFaceMeshVertex
 10
5.190455317497252
 20
7.712305784225462
 30
2.062112152576446
 70
   192
  0
VERTEX
  5
5EC
330
5DF
100
AcDbEntity
  8
3D-GENM
100
AcDbVertex
100
AcDbPolyFaceMeshVertex
 10
4.999999880790709
 20
7.74999976158142
 30
2.098473608493804
 70
   192
  0
VERTEX
  5
5ED
330
5DF
100
AcDbEntity
  8
3D-GENM
100
AcDbVertex
100
AcDbPolyFaceMeshVertex
 10
1.67522370815277
 20
7.74999976158142
 30
2.510806381702422
 70
   192
  0
VERTEX
  5
5EE
330
5DF
100
AcDbEntity
  8
3D-GENM
100
AcDbVertex
100
AcDbPolyFaceMeshVertex
 10
-1.675300061702728
 20
7.74999976158142
 30
2.51080173254013
 70
   192
  0
VERTEX
  5
5EF
330
5DF
100
AcDbEntity
  8
3D-GENM
100
AcDbVertex
100
AcDbPolyFaceMeshVertex
 10
-4.999999880790709
 20
7.74999976158142
 30
2.098473608493804
 70
   192
  0
VERTEX
  5
5F0
330
5DF
100
AcDbEntity
  8
3D-GENM
100
AcDbVertex
100
AcDbPolyFaceMeshVertex
 10
-5.190455317497252
 20
7.712305784225462
 30
2.062112152576446
 70
   192
  0
VERTEX
  5
5F1
330
5DF
100
AcDbEntity
  8
3D-GENM
100
AcDbVertex
100
AcDbPolyFaceMeshVertex
 10
-5.352321982383727
 20
7.604780673980712
 30
2.030099272727965
 70
   192
  0
VERTEX
  5
5F2
330
5DF
100
AcDbEntity
  8
3D-GENM
100
AcDbVertex
100
AcDbPolyFaceMeshVertex
 10
-5.461407423019408
 20
7.442621469497679
 30
2.007948160171508
 70
   192
  0
VERTEX
  5
5F3
330
5DF
100
AcDbEntity
  8
3D-GENM
100
AcDbVertex
100
AcDbPolyFaceMeshVertex
 10
-5.500000119209288
 20
7.250000238418578
 30
2.000000059604644
 70
   192
  0
VERTEX
  5
5F4
330
5DF
100
AcDbEntity
  8
3D-GENM
100
AcDbVertex
100
AcDbPolyFaceMeshVertex
 10
-5.500000119209288
 20
-7.250000238418578
 30
2.000000059604644
 70
   192
  0
VERTEX
  5
5F5
330
5DF
100
AcDbEntity
  8
3D-GENM
100
AcDbVertex
100
AcDbPolyFaceMeshVertex
 10
-5.461407423019408
 20
-7.442621469497679
 30
2.007948160171508
 70
   192
  0
VERTEX
  5
5F6
330
5DF
100
AcDbEntity
  8
3D-GENM
100
AcDbVertex
100
AcDbPolyFaceMeshVertex
 10
-5.352321982383727
 20
-7.604780673980712
 30
2.030099272727965
 70
   192
  0
VERTEX
  5
5F7
330
5DF
100
AcDbEntity
  8
3D-GENM
100
AcDbVertex
100
AcDbPolyFaceMeshVertex
 10
-5.190455317497252
 20
-7.712305784225462
 30
2.062112152576446
 70
   192
  0
VERTEX
  5
5F8
330
5DF
100
AcDbEntity
  8
3D-GENM
100
AcDbVertex
100
AcDbPolyFaceMeshVertex
 10
-3.437500119209289
 20
0.8895238637924192
 30
2.344170749187469
 70
   192
  0
VERTEX
  5
5F9
330
5DF
100
AcDbEntity
  8
3D-GENM
100
AcDbVertex
100
AcDbPolyFaceMeshVertex
 10
0.0000000000007496
 20
0.8895238637924192
 30
2.562500059604644
 70
   192
  0
VERTEX
  5
5FA
330
5DF
100
AcDbEntity
  8
3D-GENM
100
AcDbVertex
100
AcDbPolyFaceMeshVertex
 10
3.437500119209289
 20
0.8895238637924192
 30
2.344170749187469
 70
   192
  0
VERTEX
  5
5FB
330
5DF
100
AcDbEntity
  8
3D-GENM
100
AcDbVertex
100
AcDbPolyFaceMeshVertex
 10
3.6287122964859
 20
0.8515171408653257
 30
2.319092988967895
 70
   192
  0
VERTEX
  5
5FC
330
5DF
100
AcDbEntity
  8
3D-GENM
100
AcDbVertex
100
AcDbPolyFaceMeshVertex
 10
3.790680527687072
 20
0.7434498667716979
 30
2.296769499778747
 70
   192
  0
VERTEX
  5
5FD
330
5DF
100
AcDbEntity
  8
3D-GENM
100
AcDbVertex
100
AcDbPolyFaceMeshVertex
 10
3.899248838424682
 20
0.5813260674476623
 30
2.281249344348907
 70
   192
  0
VERTEX
  5
5FE
330
5DF
100
AcDbEntity
  8
3D-GENM
100
AcDbVertex
100
AcDbPolyFaceMeshVertex
 10
3.937499999999999
 20
0.3895238935947418
 30
2.275674462318419
 70
   192
  0
VERTEX
  5
5FF
330
5DF
100
AcDbEntity
  8
3D-GENM
100
AcDbVertex
100
AcDbPolyFaceMeshVertex
 10
3.937499999999999
 20
-5.61047601699829
 30
2.275674462318419
 70
   192
  0
VERTEX
  5
600
330
5DF
100
AcDbEntity
  8
3D-GENM
100
AcDbVertex
100
AcDbPolyFaceMeshVertex
 10
3.899248838424682
 20
-5.802278280258177
 30
2.281249344348907
 70
   192
  0
VERTEX
  5
601
330
5DF
100
AcDbEntity
  8
3D-GENM
100
AcDbVertex
100
AcDbPolyFaceMeshVertex
 10
3.790680527687072
 20
-5.964402079582213
 30
2.296769499778747
 70
   192
  0
VERTEX
  5
602
330
5DF
100
AcDbEntity
  8
3D-GENM
100
AcDbVertex
100
AcDbPolyFaceMeshVertex
 10
3.6287122964859
 20
-6.07246971130371
 30
2.319092988967895
 70
   192
  0
VERTEX
  5
603
330
5DF
100
AcDbEntity
  8
3D-GENM
100
AcDbVertex
100
AcDbPolyFaceMeshVertex
 10
3.437500119209289
 20
-6.110476255416869
 30
2.344170749187469
 70
   192
  0
VERTEX
  5
604
330
5DF
100
AcDbEntity
  8
3D-GENM
100
AcDbVertex
100
AcDbPolyFaceMeshVertex
 10
0.0000000000005384
 20
-6.110476255416869
 30
2.562500059604644
 70
   192
  0
VERTEX
  5
605
330
5DF
100
AcDbEntity
  8
3D-GENM
100
AcDbVertex
100
AcDbPolyFaceMeshVertex
 10
-3.437500119209289
 20
-6.110476255416869
 30
2.344170749187469
 70
   192
  0
VERTEX
  5
606
330
5DF
100
AcDbEntity
  8
3D-GENM
100
AcDbVertex
100
AcDbPolyFaceMeshVertex
 10
-3.62783646583557
 20
-6.072830915451048
 30
2.31921100616455
 70
   192
  0
VERTEX
  5
607
330
5DF
100
AcDbEntity
  8
3D-GENM
100
AcDbVertex
100
AcDbPolyFaceMeshVertex
 10
-3.789846181869506
 20
-5.965232491493224
 30
2.296886980533599
 70
   192
  0
VERTEX
  5
608
330
5DF
100
AcDbEntity
  8
3D-GENM
100
AcDbVertex
100
AcDbPolyFaceMeshVertex
 10
-3.898899793624877
 20
-5.80311620235443
 30
2.281299948692321
 70
   192
  0
VERTEX
  5
609
330
5DF
100
AcDbEntity
  8
3D-GENM
100
AcDbVertex
100
AcDbPolyFaceMeshVertex
 10
-3.937499999999999
 20
-5.61047601699829
 30
2.275674462318419
 70
   192
  0
VERTEX
  5
60A
330
5DF
100
AcDbEntity
  8
3D-GENM
100
AcDbVertex
100
AcDbPolyFaceMeshVertex
 10
-3.937499999999999
 20
0.3895238935947418
 30
2.275674462318419
 70
   192
  0
VERTEX
  5
60B
330
5DF
100
AcDbEntity
  8
3D-GENM
100
AcDbVertex
100
AcDbPolyFaceMeshVertex
 10
-3.899248838424682
 20
0.5813260674476623
 30
2.281249344348907
 70
   192
  0
VERTEX
  5
60C
330
5DF
100
AcDbEntity
  8
3D-GENM
100
AcDbVertex
100
AcDbPolyFaceMeshVertex
 10
-3.790680527687072
 20
0.7434498667716979
 30
2.296769499778747
 70
   192
  0
VERTEX
  5
60D
330
5DF
100
AcDbEntity
  8
3D-GENM
100
AcDbVertex
100
AcDbPolyFaceMeshVertex
 10
-3.6287122964859
 20
0.8515171408653257
 30
2.319092988967895
 70
   192
  0
VERTEX
  5
60E
330
5DF
100
AcDbEntity
  8
3D-GENM
100
AcDbVertex
100
AcDbPolyFaceMeshVertex
 10
-3.33761179447174
 20
-7.74999976158142
 30
2.304639995098113
 70
   192
  0
VERTEX
  5
60F
330
5DF
100
AcDbEntity
  8
3D-GENM
100
AcDbVertex
100
AcDbPolyFaceMeshVertex
 10
0.0000381811760235
 20
-7.74999976158142
 30
2.510804057121276
 70
   192
  0
VERTEX
  5
610
330
5DF
100
AcDbEntity
  8
3D-GENM
100
AcDbVertex
100
AcDbPolyFaceMeshVertex
 10
3.337650060653686
 20
-7.74999976158142
 30
2.304637670516967
 70
   192
  0
VERTEX
  5
611
330
5DF
100
AcDbEntity
  8
3D-GENM
100
AcDbVertex
100
AcDbPolyFaceMeshVertex
 10
5.500000119209288
 20
0.0000006514572135
 30
2.000000059604644
 70
   192
  0
VERTEX
  5
612
330
5DF
100
AcDbEntity
  8
3D-GENM
100
AcDbVertex
100
AcDbPolyFaceMeshVertex
 10
-5.500000119209288
 20
0.0000030049255884
 30
2.000000059604644
 70
   192
  0
VERTEX
  5
613
330
5DF
100
AcDbEntity
  8
3D-GENM
100
AcDbVertex
100
AcDbPolyFaceMeshVertex
 10
1.718750059604644
 20
-6.110476255416869
 30
2.453335404396056
 70
   192
  0
VERTEX
  5
614
330
5DF
100
AcDbEntity
  8
3D-GENM
100
AcDbVertex
100
AcDbPolyFaceMeshVertex
 10
-1.718750059604644
 20
-6.110476255416869
 30
2.453335404396056
 70
   192
  0
VERTEX
  5
615
330
5DF
100
AcDbEntity
  8
3D-GENM
100
AcDbVertex
100
AcDbPolyFaceMeshVertex
 10
5.500000119209288
 20
-3.62499976158142
 30
2.000000059604644
 70
   192
  0
VERTEX
  5
616
330
5DF
100
AcDbEntity
  8
3D-GENM
100
AcDbVertex
100
AcDbPolyFaceMeshVertex
 10
-5.500000119209288
 20
-3.624995470046996
 30
2.000000059604644
 70
   192
  0
VERTEX
  5
617
330
5DF
100
AcDbEntity
  8
3D-GENM
100
AcDbVertex
100
AcDbPolyFaceMeshVertex
 10
-3.937499999999999
 20
-2.610476195812224
 30
2.275674462318419
 70
   192
  0
VERTEX
  5
618
330
5DF
100
AcDbEntity
  8
3D-GENM
100
AcDbVertex
100
AcDbPolyFaceMeshVertex
 10
3.937499999999999
 20
-2.610476195812224
 30
2.275674462318419
 70
   192
  0
VERTEX
  5
619
330
5DF
100
AcDbEntity
  8
3D-GENM
100
AcDbFaceRecord
 10
0.0
 20
0.0
 30
0.0
 70
   128
 71
    12
 72
   -13
 73
    -9
  0
VERTEX
  5
61A
330
5DF
100
AcDbEntity
  8
3D-GENM
100
AcDbFaceRecord
 10
0.0
 20
0.0
 30
0.0
 70
   128
 71
     9
 72
    10
 73
   -11
  0
VERTEX
  5
61B
330
5DF
100
AcDbEntity
  8
3D-GENM
100
AcDbFaceRecord
 10
0.0
 20
0.0
 30
0.0
 70
   128
 71
    -9
 72
    11
 73
   -12
  0
VERTEX
  5
61C
330
5DF
100
AcDbEntity
  8
3D-GENM
100
AcDbFaceRecord
 10
0.0
 20
0.0
 30
0.0
 70
   128
 71
   -13
 72
   -28
 73
    -9
  0
VERTEX
  5
61D
330
5DF
100
AcDbEntity
  8
3D-GENM
100
AcDbFaceRecord
 10
0.0
 20
0.0
 30
0.0
 70
   128
 71
   -13
 72
    27
 73
   -28
  0
VERTEX
  5
61E
330
5DF
100
AcDbEntity
  8
3D-GENM
100
AcDbFaceRecord
 10
0.0
 20
0.0
 30
0.0
 70
   128
 71
    28
 72
   -29
 73
    -9
  0
VERTEX
  5
61F
330
5DF
100
AcDbEntity
  8
3D-GENM
100
AcDbFaceRecord
 10
0.0
 20
0.0
 30
0.0
 70
   128
 71
    -2
 72
    37
 73
   -53
  0
VERTEX
  5
620
330
5DF
100
AcDbEntity
  8
3D-GENM
100
AcDbFaceRecord
 10
0.0
 20
0.0
 30
0.0
 70
   128
 71
   -37
 72
     2
 73
    48
 74
    -3
  0
VERTEX
  5
621
330
5DF
100
AcDbEntity
  8
3D-GENM
100
AcDbFaceRecord
 10
0.0
 20
0.0
 30
0.0
 70
   128
 71
   -31
 72
   -50
 73
    30
  0
VERTEX
  5
622
330
5DF
100
AcDbEntity
  8
3D-GENM
100
AcDbFaceRecord
 10
0.0
 20
0.0
 30
0.0
 70
   128
 71
   -50
 72
    29
 73
   -30
  0
VERTEX
  5
623
330
5DF
100
AcDbEntity
  8
3D-GENM
100
AcDbFaceRecord
 10
0.0
 20
0.0
 30
0.0
 70
   128
 71
    57
 72
   -32
 73
    54
 74
   -50
  0
VERTEX
  5
624
330
5DF
100
AcDbEntity
  8
3D-GENM
100
AcDbFaceRecord
 10
0.0
 20
0.0
 30
0.0
 70
   128
 71
   -14
 72
   -27
 73
    13
  0
VERTEX
  5
625
330
5DF
100
AcDbEntity
  8
3D-GENM
100
AcDbFaceRecord
 10
0.0
 20
0.0
 30
0.0
 70
   128
 71
    50
 72
    -9
 73
   -29
  0
VERTEX
  5
626
330
5DF
100
AcDbEntity
  8
3D-GENM
100
AcDbFaceRecord
 10
0.0
 20
0.0
 30
0.0
 70
   128
 71
     7
 72
    -8
 73
     6
  0
VERTEX
  5
627
330
5DF
100
AcDbEntity
  8
3D-GENM
100
AcDbFaceRecord
 10
0.0
 20
0.0
 30
0.0
 70
   128
 71
    31
 72
   -57
 73
   -50
  0
VERTEX
  5
628
330
5DF
100
AcDbEntity
  8
3D-GENM
100
AcDbFaceRecord
 10
0.0
 20
0.0
 30
0.0
 70
   128
 71
   -33
 72
    -4
 73
    -8
  0
VERTEX
  5
629
330
5DF
100
AcDbEntity
  8
3D-GENM
100
AcDbFaceRecord
 10
0.0
 20
0.0
 30
0.0
 70
   128
 71
    -8
 72
     5
 73
    -6
  0
VERTEX
  5
62A
330
5DF
100
AcDbEntity
  8
3D-GENM
100
AcDbFaceRecord
 10
0.0
 20
0.0
 30
0.0
 70
   128
 71
    -5
 72
    -8
 73
     4
  0
VERTEX
  5
62B
330
5DF
100
AcDbEntity
  8
3D-GENM
100
AcDbFaceRecord
 10
0.0
 20
0.0
 30
0.0
 70
   128
 71
    -8
 72
    32
 73
   -33
  0
VERTEX
  5
62C
330
5DF
100
AcDbEntity
  8
3D-GENM
100
AcDbFaceRecord
 10
0.0
 20
0.0
 30
0.0
 70
   128
 71
   -39
 72
   -47
 73
    38
  0
VERTEX
  5
62D
330
5DF
100
AcDbEntity
  8
3D-GENM
100
AcDbFaceRecord
 10
0.0
 20
0.0
 30
0.0
 70
   128
 71
   -52
 72
   -49
 73
    36
  0
VERTEX
  5
62E
330
5DF
100
AcDbEntity
  8
3D-GENM
100
AcDbFaceRecord
 10
0.0
 20
0.0
 30
0.0
 70
   128
 71
   -49
 72
    35
 73
   -36
  0
VERTEX
  5
62F
330
5DF
100
AcDbEntity
  8
3D-GENM
100
AcDbFaceRecord
 10
0.0
 20
0.0
 30
0.0
 70
   128
 71
    33
 72
   -34
 73
    -4
  0
VERTEX
  5
630
330
5DF
100
AcDbEntity
  8
3D-GENM
100
AcDbFaceRecord
 10
0.0
 20
0.0
 30
0.0
 70
   128
 71
    52
 72
   -37
 73
    -3
  0
VERTEX
  5
631
330
5DF
100
AcDbEntity
  8
3D-GENM
100
AcDbFaceRecord
 10
0.0
 20
0.0
 30
0.0
 70
   128
 71
   -44
 72
   -51
 73
    43
  0
VERTEX
  5
632
330
5DF
100
AcDbEntity
  8
3D-GENM
100
AcDbFaceRecord
 10
0.0
 20
0.0
 30
0.0
 70
   128
 71
   -34
 72
    49
 73
    -4
  0
VERTEX
  5
633
330
5DF
100
AcDbEntity
  8
3D-GENM
100
AcDbFaceRecord
 10
0.0
 20
0.0
 30
0.0
 70
   128
 71
   -32
 72
     8
 73
   -54
  0
VERTEX
  5
634
330
5DF
100
AcDbEntity
  8
3D-GENM
100
AcDbFaceRecord
 10
0.0
 20
0.0
 30
0.0
 70
   128
 71
   -49
 72
    34
 73
   -35
  0
VERTEX
  5
635
330
5DF
100
AcDbEntity
  8
3D-GENM
100
AcDbFaceRecord
 10
0.0
 20
0.0
 30
0.0
 70
   128
 71
   -27
 72
   -14
 73
    26
  0
VERTEX
  5
636
330
5DF
100
AcDbEntity
  8
3D-GENM
100
AcDbFaceRecord
 10
0.0
 20
0.0
 30
0.0
 70
   128
 71
   -15
 72
    25
 73
   -26
  0
VERTEX
  5
637
330
5DF
100
AcDbEntity
  8
3D-GENM
100
AcDbFaceRecord
 10
0.0
 20
0.0
 30
0.0
 70
   128
 71
    46
 72
   -25
 73
   -16
  0
VERTEX
  5
638
330
5DF
100
AcDbEntity
  8
3D-GENM
100
AcDbFaceRecord
 10
0.0
 20
0.0
 30
0.0
 70
   128
 71
   -20
 72
    45
 73
   -46
  0
VERTEX
  5
639
330
5DF
100
AcDbEntity
  8
3D-GENM
100
AcDbFaceRecord
 10
0.0
 20
0.0
 30
0.0
 70
   128
 71
    42
 72
   -56
 73
    55
 74
   -21
  0
VERTEX
  5
63A
330
5DF
100
AcDbEntity
  8
3D-GENM
100
AcDbFaceRecord
 10
0.0
 20
0.0
 30
0.0
 70
   128
 71
   -16
 72
   -25
 73
    15
  0
VERTEX
  5
63B
330
5DF
100
AcDbEntity
  8
3D-GENM
100
AcDbFaceRecord
 10
0.0
 20
0.0
 30
0.0
 70
   128
 71
   -15
 72
   -26
 73
    14
  0
VERTEX
  5
63C
330
5DF
100
AcDbEntity
  8
3D-GENM
100
AcDbFaceRecord
 10
0.0
 20
0.0
 30
0.0
 70
   128
 71
   -20
 72
    16
 73
   -17
  0
VERTEX
  5
63D
330
5DF
100
AcDbEntity
  8
3D-GENM
100
AcDbFaceRecord
 10
0.0
 20
0.0
 30
0.0
 70
   128
 71
   -20
 72
    17
 73
   -18
  0
VERTEX
  5
63E
330
5DF
100
AcDbEntity
  8
3D-GENM
100
AcDbFaceRecord
 10
0.0
 20
0.0
 30
0.0
 70
   128
 71
   -51
 72
   -45
 73
    20
  0
VERTEX
  5
63F
330
5DF
100
AcDbEntity
  8
3D-GENM
100
AcDbFaceRecord
 10
0.0
 20
0.0
 30
0.0
 70
   128
 71
   -20
 72
    18
 73
    19
  0
VERTEX
  5
640
330
5DF
100
AcDbEntity
  8
3D-GENM
100
AcDbFaceRecord
 10
0.0
 20
0.0
 30
0.0
 70
   128
 71
   -51
 72
    44
 73
   -45
  0
VERTEX
  5
641
330
5DF
100
AcDbEntity
  8
3D-GENM
100
AcDbFaceRecord
 10
0.0
 20
0.0
 30
0.0
 70
   128
 71
   -20
 72
   -46
 73
   -16
  0
VERTEX
  5
642
330
5DF
100
AcDbEntity
  8
3D-GENM
100
AcDbFaceRecord
 10
0.0
 20
0.0
 30
0.0
 70
   128
 71
   -49
 72
   -52
 73
     3
  0
VERTEX
  5
643
330
5DF
100
AcDbEntity
  8
3D-GENM
100
AcDbFaceRecord
 10
0.0
 20
0.0
 30
0.0
 70
   128
 71
    56
 72
   -43
 73
    51
 74
   -55
  0
VERTEX
  5
644
330
5DF
100
AcDbEntity
  8
3D-GENM
100
AcDbFaceRecord
 10
0.0
 20
0.0
 30
0.0
 70
   128
 71
    41
 72
   -42
 73
   -21
  0
VERTEX
  5
645
330
5DF
100
AcDbEntity
  8
3D-GENM
100
AcDbFaceRecord
 10
0.0
 20
0.0
 30
0.0
 70
   128
 71
    40
 72
   -41
 73
    -1
  0
VERTEX
  5
646
330
5DF
100
AcDbEntity
  8
3D-GENM
100
AcDbFaceRecord
 10
0.0
 20
0.0
 30
0.0
 70
   128
 71
    -2
 72
   -53
 73
    47
  0
VERTEX
  5
647
330
5DF
100
AcDbEntity
  8
3D-GENM
100
AcDbFaceRecord
 10
0.0
 20
0.0
 30
0.0
 70
   128
 71
   -47
 72
    39
 73
   -40
  0
VERTEX
  5
648
330
5DF
100
AcDbEntity
  8
3D-GENM
100
AcDbFaceRecord
 10
0.0
 20
0.0
 30
0.0
 70
   128
 71
   -40
 72
     1
 73
   -47
  0
VERTEX
  5
649
330
5DF
100
AcDbEntity
  8
3D-GENM
100
AcDbFaceRecord
 10
0.0
 20
0.0
 30
0.0
 70
   128
 71
    53
 72
   -38
 73
   -47
  0
VERTEX
  5
64A
330
5DF
100
AcDbEntity
  8
3D-GENM
100
AcDbFaceRecord
 10
0.0
 20
0.0
 30
0.0
 70
   128
 71
   -41
 72
   -21
 73
    -1
  0
VERTEX
  5
64B
330
5DF
100
AcDbEntity
  8
3D-GENM
100
AcDbFaceRecord
 10
0.0
 20
0.0
 30
0.0
 70
   128
 71
   -23
 72
    21
 73
    22
  0
VERTEX
  5
64C
330
5DF
100
AcDbEntity
  8
3D-GENM
100
AcDbFaceRecord
 10
0.0
 20
0.0
 30
0.0
 70
   128
 71
   -21
 72
    24
 73
    -1
  0
VERTEX
  5
64D
330
5DF
100
AcDbEntity
  8
3D-GENM
100
AcDbFaceRecord
 10
0.0
 20
0.0
 30
0.0
 70
   128
 71
   -24
 72
   -21
 73
    23
  0
SEQEND
  5
64E
330
5DF
100
AcDbEntity
  8
3D-GENM
  0
POLYLINE
  5
64F
330
7F
100
AcDbEntity
  8
3D-GENM
100
AcDbPolyFaceMesh
 66
     1
 10
0.0
 20
0.0
 30
0.0
 70
    64
 71
    56
 72
    40
1001
REVIT
1002
{
1070
     4
1000
6208
1002
}
  0
VERTEX
  5
650
330
64F
100
AcDbEntity
  8
3D-GENM
100
AcDbVertex
100
AcDbPolyFaceMeshVertex
 10
4.999999880790709
 20
-7.74999976158142
 30
2.000000059604644
 70
   192
  0
VERTEX
  5
651
330
64F
100
AcDbEntity
  8
3D-GENM
100
AcDbVertex
100
AcDbPolyFaceMeshVertex
 10
-4.999999880790709
 20
-7.74999976158142
 30
2.000000059604644
 70
   192
  0
VERTEX
  5
652
330
64F
100
AcDbEntity
  8
3D-GENM
100
AcDbVertex
100
AcDbPolyFaceMeshVertex
 10
-5.129409670829772
 20
-7.732963085174559
 30
2.000000059604644
 70
   192
  0
VERTEX
  5
653
330
64F
100
AcDbEntity
  8
3D-GENM
100
AcDbVertex
100
AcDbPolyFaceMeshVertex
 10
-5.249999999999999
 20
-7.683012485504149
 30
2.000000059604644
 70
   192
  0
VERTEX
  5
654
330
64F
100
AcDbEntity
  8
3D-GENM
100
AcDbVertex
100
AcDbPolyFaceMeshVertex
 10
-5.353553295135497
 20
-7.603553295135497
 30
2.000000059604644
 70
   192
  0
VERTEX
  5
655
330
64F
100
AcDbEntity
  8
3D-GENM
100
AcDbVertex
100
AcDbPolyFaceMeshVertex
 10
-5.433012843132018
 20
-7.499999999999999
 30
2.000000059604644
 70
   192
  0
VERTEX
  5
656
330
64F
100
AcDbEntity
  8
3D-GENM
100
AcDbVertex
100
AcDbPolyFaceMeshVertex
 10
-5.482963085174559
 20
-7.379409313201903
 30
2.000000059604644
 70
   192
  0
VERTEX
  5
657
330
64F
100
AcDbEntity
  8
3D-GENM
100
AcDbVertex
100
AcDbPolyFaceMeshVertex
 10
-5.500000119209288
 20
-7.250000238418578
 30
2.000000059604644
 70
   192
  0
VERTEX
  5
658
330
64F
100
AcDbEntity
  8
3D-GENM
100
AcDbVertex
100
AcDbPolyFaceMeshVertex
 10
-5.500000119209288
 20
7.250000238418578
 30
2.000000059604644
 70
   192
  0
VERTEX
  5
659
330
64F
100
AcDbEntity
  8
3D-GENM
100
AcDbVertex
100
AcDbPolyFaceMeshVertex
 10
-5.482963085174559
 20
7.379409313201903
 30
2.000000059604644
 70
   192
  0
VERTEX
  5
65A
330
64F
100
AcDbEntity
  8
3D-GENM
100
AcDbVertex
100
AcDbPolyFaceMeshVertex
 10
-5.433012843132018
 20
7.499999999999999
 30
2.000000059604644
 70
   192
  0
VERTEX
  5
65B
330
64F
100
AcDbEntity
  8
3D-GENM
100
AcDbVertex
100
AcDbPolyFaceMeshVertex
 10
-5.353553295135497
 20
7.603553295135497
 30
2.000000059604644
 70
   192
  0
VERTEX
  5
65C
330
64F
100
AcDbEntity
  8
3D-GENM
100
AcDbVertex
100
AcDbPolyFaceMeshVertex
 10
-5.249999999999999
 20
7.683012485504149
 30
2.000000059604644
 70
   192
  0
VERTEX
  5
65D
330
64F
100
AcDbEntity
  8
3D-GENM
100
AcDbVertex
100
AcDbPolyFaceMeshVertex
 10
-5.129409670829772
 20
7.732963085174559
 30
2.000000059604644
 70
   192
  0
VERTEX
  5
65E
330
64F
100
AcDbEntity
  8
3D-GENM
100
AcDbVertex
100
AcDbPolyFaceMeshVertex
 10
-4.999999880790709
 20
7.74999976158142
 30
2.000000059604644
 70
   192
  0
VERTEX
  5
65F
330
64F
100
AcDbEntity
  8
3D-GENM
100
AcDbVertex
100
AcDbPolyFaceMeshVertex
 10
4.999999880790709
 20
7.74999976158142
 30
2.000000059604644
 70
   192
  0
VERTEX
  5
660
330
64F
100
AcDbEntity
  8
3D-GENM
100
AcDbVertex
100
AcDbPolyFaceMeshVertex
 10
5.129409670829772
 20
7.732963085174559
 30
2.000000059604644
 70
   192
  0
VERTEX
  5
661
330
64F
100
AcDbEntity
  8
3D-GENM
100
AcDbVertex
100
AcDbPolyFaceMeshVertex
 10
5.249999999999999
 20
7.683012485504149
 30
2.000000059604644
 70
   192
  0
VERTEX
  5
662
330
64F
100
AcDbEntity
  8
3D-GENM
100
AcDbVertex
100
AcDbPolyFaceMeshVertex
 10
5.353553295135497
 20
7.603553295135497
 30
2.000000059604644
 70
   192
  0
VERTEX
  5
663
330
64F
100
AcDbEntity
  8
3D-GENM
100
AcDbVertex
100
AcDbPolyFaceMeshVertex
 10
5.433012843132018
 20
7.499999999999999
 30
2.000000059604644
 70
   192
  0
VERTEX
  5
664
330
64F
100
AcDbEntity
  8
3D-GENM
100
AcDbVertex
100
AcDbPolyFaceMeshVertex
 10
5.482963085174559
 20
7.379409313201903
 30
2.000000059604644
 70
   192
  0
VERTEX
  5
665
330
64F
100
AcDbEntity
  8
3D-GENM
100
AcDbVertex
100
AcDbPolyFaceMeshVertex
 10
5.500000119209288
 20
7.250000238418578
 30
2.000000059604644
 70
   192
  0
VERTEX
  5
666
330
64F
100
AcDbEntity
  8
3D-GENM
100
AcDbVertex
100
AcDbPolyFaceMeshVertex
 10
5.500000119209288
 20
-7.250000238418578
 30
2.000000059604644
 70
   192
  0
VERTEX
  5
667
330
64F
100
AcDbEntity
  8
3D-GENM
100
AcDbVertex
100
AcDbPolyFaceMeshVertex
 10
5.482963085174559
 20
-7.379409313201903
 30
2.000000059604644
 70
   192
  0
VERTEX
  5
668
330
64F
100
AcDbEntity
  8
3D-GENM
100
AcDbVertex
100
AcDbPolyFaceMeshVertex
 10
5.433012843132018
 20
-7.499999999999999
 30
2.000000059604644
 70
   192
  0
VERTEX
  5
669
330
64F
100
AcDbEntity
  8
3D-GENM
100
AcDbVertex
100
AcDbPolyFaceMeshVertex
 10
5.353553295135497
 20
-7.603553295135497
 30
2.000000059604644
 70
   192
  0
VERTEX
  5
66A
330
64F
100
AcDbEntity
  8
3D-GENM
100
AcDbVertex
100
AcDbPolyFaceMeshVertex
 10
5.249999999999999
 20
-7.683012485504149
 30
2.000000059604644
 70
   192
  0
VERTEX
  5
66B
330
64F
100
AcDbEntity
  8
3D-GENM
100
AcDbVertex
100
AcDbPolyFaceMeshVertex
 10
5.129409670829772
 20
-7.732963085174559
 30
2.000000059604644
 70
   192
  0
VERTEX
  5
66C
330
64F
100
AcDbEntity
  8
3D-GENM
100
AcDbVertex
100
AcDbPolyFaceMeshVertex
 10
3.437500119209289
 20
0.8895238637924192
 30
2.000000059604644
 70
   192
  0
VERTEX
  5
66D
330
64F
100
AcDbEntity
  8
3D-GENM
100
AcDbVertex
100
AcDbPolyFaceMeshVertex
 10
-3.437500119209289
 20
0.8895238637924192
 30
2.000000059604644
 70
   192
  0
VERTEX
  5
66E
330
64F
100
AcDbEntity
  8
3D-GENM
100
AcDbVertex
100
AcDbPolyFaceMeshVertex
 10
-3.566909551620482
 20
0.8724868297576902
 30
2.000000059604644
 70
   192
  0
VERTEX
  5
66F
330
64F
100
AcDbEntity
  8
3D-GENM
100
AcDbVertex
100
AcDbPolyFaceMeshVertex
 10
-3.68749988079071
 20
0.8225365877151487
 30
2.000000059604644
 70
   192
  0
VERTEX
  5
670
330
64F
100
AcDbEntity
  8
3D-GENM
100
AcDbVertex
100
AcDbPolyFaceMeshVertex
 10
-3.791053533554076
 20
0.7430772632360458
 30
2.000000059604644
 70
   192
  0
VERTEX
  5
671
330
64F
100
AcDbEntity
  8
3D-GENM
100
AcDbVertex
100
AcDbPolyFaceMeshVertex
 10
-3.870512723922729
 20
0.6395238786935806
 30
2.000000059604644
 70
   192
  0
VERTEX
  5
672
330
64F
100
AcDbEntity
  8
3D-GENM
100
AcDbVertex
100
AcDbPolyFaceMeshVertex
 10
-3.92046296596527
 20
0.5189334154129028
 30
2.000000059604644
 70
   192
  0
VERTEX
  5
673
330
64F
100
AcDbEntity
  8
3D-GENM
100
AcDbVertex
100
AcDbPolyFaceMeshVertex
 10
-3.937499999999999
 20
0.3895238935947418
 30
2.000000059604644
 70
   192
  0
VERTEX
  5
674
330
64F
100
AcDbEntity
  8
3D-GENM
100
AcDbVertex
100
AcDbPolyFaceMeshVertex
 10
-3.937499999999999
 20
-5.61047601699829
 30
2.000000059604644
 70
   192
  0
VERTEX
  5
675
330
64F
100
AcDbEntity
  8
3D-GENM
100
AcDbVertex
100
AcDbPolyFaceMeshVertex
 10
-3.92046296596527
 20
-5.739885807037352
 30
2.000000059604644
 70
   192
  0
VERTEX
  5
676
330
64F
100
AcDbEntity
  8
3D-GENM
100
AcDbVertex
100
AcDbPolyFaceMeshVertex
 10
-3.870512723922729
 20
-5.860476136207579
 30
2.000000059604644
 70
   192
  0
VERTEX
  5
677
330
64F
100
AcDbEntity
  8
3D-GENM
100
AcDbVertex
100
AcDbPolyFaceMeshVertex
 10
-3.791053533554076
 20
-5.964029431343077
 30
2.000000059604644
 70
   192
  0
VERTEX
  5
678
330
64F
100
AcDbEntity
  8
3D-GENM
100
AcDbVertex
100
AcDbPolyFaceMeshVertex
 10
-3.68749988079071
 20
-6.043488979339598
 30
2.000000059604644
 70
   192
  0
VERTEX
  5
679
330
64F
100
AcDbEntity
  8
3D-GENM
100
AcDbVertex
100
AcDbPolyFaceMeshVertex
 10
-3.566909551620482
 20
-6.093438863754271
 30
2.000000059604644
 70
   192
  0
VERTEX
  5
67A
330
64F
100
AcDbEntity
  8
3D-GENM
100
AcDbVertex
100
AcDbPolyFaceMeshVertex
 10
-3.437500119209289
 20
-6.110476255416869
 30
2.000000059604644
 70
   192
  0
VERTEX
  5
67B
330
64F
100
AcDbEntity
  8
3D-GENM
100
AcDbVertex
100
AcDbPolyFaceMeshVertex
 10
3.437500119209289
 20
-6.110476255416869
 30
2.000000059604644
 70
   192
  0
VERTEX
  5
67C
330
64F
100
AcDbEntity
  8
3D-GENM
100
AcDbVertex
100
AcDbPolyFaceMeshVertex
 10
3.566909551620482
 20
-6.093438863754271
 30
2.000000059604644
 70
   192
  0
VERTEX
  5
67D
330
64F
100
AcDbEntity
  8
3D-GENM
100
AcDbVertex
100
AcDbPolyFaceMeshVertex
 10
3.68749988079071
 20
-6.043488979339598
 30
2.000000059604644
 70
   192
  0
VERTEX
  5
67E
330
64F
100
AcDbEntity
  8
3D-GENM
100
AcDbVertex
100
AcDbPolyFaceMeshVertex
 10
3.791053533554076
 20
-5.964029431343077
 30
2.000000059604644
 70
   192
  0
VERTEX
  5
67F
330
64F
100
AcDbEntity
  8
3D-GENM
100
AcDbVertex
100
AcDbPolyFaceMeshVertex
 10
3.870512723922729
 20
-5.860476136207579
 30
2.000000059604644
 70
   192
  0
VERTEX
  5
680
330
64F
100
AcDbEntity
  8
3D-GENM
100
AcDbVertex
100
AcDbPolyFaceMeshVertex
 10
3.92046296596527
 20
-5.739885807037352
 30
2.000000059604644
 70
   192
  0
VERTEX
  5
681
330
64F
100
AcDbEntity
  8
3D-GENM
100
AcDbVertex
100
AcDbPolyFaceMeshVertex
 10
3.937499999999999
 20
-5.61047601699829
 30
2.000000059604644
 70
   192
  0
VERTEX
  5
682
330
64F
100
AcDbEntity
  8
3D-GENM
100
AcDbVertex
100
AcDbPolyFaceMeshVertex
 10
3.937499999999999
 20
0.3895238935947418
 30
2.000000059604644
 70
   192
  0
VERTEX
  5
683
330
64F
100
AcDbEntity
  8
3D-GENM
100
AcDbVertex
100
AcDbPolyFaceMeshVertex
 10
3.92046296596527
 20
0.5189334154129028
 30
2.000000059604644
 70
   192
  0
VERTEX
  5
684
330
64F
100
AcDbEntity
  8
3D-GENM
100
AcDbVertex
100
AcDbPolyFaceMeshVertex
 10
3.870512723922729
 20
0.6395238786935806
 30
2.000000059604644
 70
   192
  0
VERTEX
  5
685
330
64F
100
AcDbEntity
  8
3D-GENM
100
AcDbVertex
100
AcDbPolyFaceMeshVertex
 10
3.791053533554076
 20
0.7430772632360458
 30
2.000000059604644
 70
   192
  0
VERTEX
  5
686
330
64F
100
AcDbEntity
  8
3D-GENM
100
AcDbVertex
100
AcDbPolyFaceMeshVertex
 10
3.68749988079071
 20
0.8225365877151487
 30
2.000000059604644
 70
   192
  0
VERTEX
  5
687
330
64F
100
AcDbEntity
  8
3D-GENM
100
AcDbVertex
100
AcDbPolyFaceMeshVertex
 10
3.566909551620482
 20
0.8724868297576902
 30
2.000000059604644
 70
   192
  0
VERTEX
  5
688
330
64F
100
AcDbEntity
  8
3D-GENM
100
AcDbFaceRecord
 10
0.0
 20
0.0
 30
0.0
 70
   128
 71
    -2
 72
     6
 73
     7
 74
    -8
  0
VERTEX
  5
689
330
64F
100
AcDbEntity
  8
3D-GENM
100
AcDbFaceRecord
 10
0.0
 20
0.0
 30
0.0
 70
   128
 71
     5
 72
    -6
 73
     3
 74
     4
  0
VERTEX
  5
68A
330
64F
100
AcDbEntity
  8
3D-GENM
100
AcDbFaceRecord
 10
0.0
 20
0.0
 30
0.0
 70
   128
 71
    -3
 72
    -6
 73
     2
  0
VERTEX
  5
68B
330
64F
100
AcDbEntity
  8
3D-GENM
100
AcDbFaceRecord
 10
0.0
 20
0.0
 30
0.0
 70
   128
 71
    -2
 72
    -8
 73
    40
 74
   -41
  0
VERTEX
  5
68C
330
64F
100
AcDbEntity
  8
3D-GENM
100
AcDbFaceRecord
 10
0.0
 20
0.0
 30
0.0
 70
   128
 71
    38
 72
   -39
 73
    -8
  0
VERTEX
  5
68D
330
64F
100
AcDbEntity
  8
3D-GENM
100
AcDbFaceRecord
 10
0.0
 20
0.0
 30
0.0
 70
   128
 71
    37
 72
   -38
 73
    -8
  0
VERTEX
  5
68E
330
64F
100
AcDbEntity
  8
3D-GENM
100
AcDbFaceRecord
 10
0.0
 20
0.0
 30
0.0
 70
   128
 71
    42
 72
   -43
 73
    -2
  0
VERTEX
  5
68F
330
64F
100
AcDbEntity
  8
3D-GENM
100
AcDbFaceRecord
 10
0.0
 20
0.0
 30
0.0
 70
   128
 71
   -42
 72
    -2
 73
    41
  0
VERTEX
  5
690
330
64F
100
AcDbEntity
  8
3D-GENM
100
AcDbFaceRecord
 10
0.0
 20
0.0
 30
0.0
 70
   128
 71
    39
 72
   -40
 73
    -8
  0
VERTEX
  5
691
330
64F
100
AcDbEntity
  8
3D-GENM
100
AcDbFaceRecord
 10
0.0
 20
0.0
 30
0.0
 70
   128
 71
    36
 72
   -37
 73
     8
 74
    -9
  0
VERTEX
  5
692
330
64F
100
AcDbEntity
  8
3D-GENM
100
AcDbFaceRecord
 10
0.0
 20
0.0
 30
0.0
 70
   128
 71
    -2
 72
    43
 73
   -44
  0
VERTEX
  5
693
330
64F
100
AcDbEntity
  8
3D-GENM
100
AcDbFaceRecord
 10
0.0
 20
0.0
 30
0.0
 70
   128
 71
    26
 72
    27
 73
   -28
 74
    25
  0
VERTEX
  5
694
330
64F
100
AcDbEntity
  8
3D-GENM
100
AcDbFaceRecord
 10
0.0
 20
0.0
 30
0.0
 70
   128
 71
   -25
 72
    28
 73
    -1
 74
    24
  0
VERTEX
  5
695
330
64F
100
AcDbEntity
  8
3D-GENM
100
AcDbFaceRecord
 10
0.0
 20
0.0
 30
0.0
 70
   128
 71
    23
 72
   -24
 73
    -1
 74
   -47
  0
VERTEX
  5
696
330
64F
100
AcDbEntity
  8
3D-GENM
100
AcDbFaceRecord
 10
0.0
 20
0.0
 30
0.0
 70
   128
 71
    45
 72
   -46
 73
    -1
  0
VERTEX
  5
697
330
64F
100
AcDbEntity
  8
3D-GENM
100
AcDbFaceRecord
 10
0.0
 20
0.0
 30
0.0
 70
   128
 71
    44
 72
   -45
 73
     1
 74
    -2
  0
VERTEX
  5
698
330
64F
100
AcDbEntity
  8
3D-GENM
100
AcDbFaceRecord
 10
0.0
 20
0.0
 30
0.0
 70
   128
 71
    47
 72
   -48
 73
   -23
  0
VERTEX
  5
699
330
64F
100
AcDbEntity
  8
3D-GENM
100
AcDbFaceRecord
 10
0.0
 20
0.0
 30
0.0
 70
   128
 71
    49
 72
   -50
 73
   -23
  0
VERTEX
  5
69A
330
64F
100
AcDbEntity
  8
3D-GENM
100
AcDbFaceRecord
 10
0.0
 20
0.0
 30
0.0
 70
   128
 71
    48
 72
   -49
 73
   -23
  0
VERTEX
  5
69B
330
64F
100
AcDbEntity
  8
3D-GENM
100
AcDbFaceRecord
 10
0.0
 20
0.0
 30
0.0
 70
   128
 71
    46
 72
   -47
 73
    -1
  0
VERTEX
  5
69C
330
64F
100
AcDbEntity
  8
3D-GENM
100
AcDbFaceRecord
 10
0.0
 20
0.0
 30
0.0
 70
   128
 71
   -23
 72
    50
 73
   -51
  0
VERTEX
  5
69D
330
64F
100
AcDbEntity
  8
3D-GENM
100
AcDbFaceRecord
 10
0.0
 20
0.0
 30
0.0
 70
   128
 71
    35
 72
   -36
 73
    -9
  0
VERTEX
  5
69E
330
64F
100
AcDbEntity
  8
3D-GENM
100
AcDbFaceRecord
 10
0.0
 20
0.0
 30
0.0
 70
   128
 71
    34
 72
   -35
 73
    -9
  0
VERTEX
  5
69F
330
64F
100
AcDbEntity
  8
3D-GENM
100
AcDbFaceRecord
 10
0.0
 20
0.0
 30
0.0
 70
   128
 71
    32
 72
   -33
 73
    -9
  0
VERTEX
  5
6A0
330
64F
100
AcDbEntity
  8
3D-GENM
100
AcDbFaceRecord
 10
0.0
 20
0.0
 30
0.0
 70
   128
 71
    30
 72
   -31
 73
    -9
 74
   -15
  0
VERTEX
  5
6A1
330
64F
100
AcDbEntity
  8
3D-GENM
100
AcDbFaceRecord
 10
0.0
 20
0.0
 30
0.0
 70
   128
 71
   -32
 72
    -9
 73
    31
  0
VERTEX
  5
6A2
330
64F
100
AcDbEntity
  8
3D-GENM
100
AcDbFaceRecord
 10
0.0
 20
0.0
 30
0.0
 70
   128
 71
   -34
 72
    -9
 73
    33
  0
VERTEX
  5
6A3
330
64F
100
AcDbEntity
  8
3D-GENM
100
AcDbFaceRecord
 10
0.0
 20
0.0
 30
0.0
 70
   128
 71
   -15
 72
     9
 73
    10
 74
   -11
  0
VERTEX
  5
6A4
330
64F
100
AcDbEntity
  8
3D-GENM
100
AcDbFaceRecord
 10
0.0
 20
0.0
 30
0.0
 70
   128
 71
    12
 72
    13
 73
   -14
  0
VERTEX
  5
6A5
330
64F
100
AcDbEntity
  8
3D-GENM
100
AcDbFaceRecord
 10
0.0
 20
0.0
 30
0.0
 70
   128
 71
    14
 72
   -15
 73
    11
 74
   -12
  0
VERTEX
  5
6A6
330
64F
100
AcDbEntity
  8
3D-GENM
100
AcDbFaceRecord
 10
0.0
 20
0.0
 30
0.0
 70
   128
 71
    29
 72
   -30
 73
    15
 74
   -16
  0
VERTEX
  5
6A7
330
64F
100
AcDbEntity
  8
3D-GENM
100
AcDbFaceRecord
 10
0.0
 20
0.0
 30
0.0
 70
   128
 71
    56
 72
   -29
 73
   -22
  0
VERTEX
  5
6A8
330
64F
100
AcDbEntity
  8
3D-GENM
100
AcDbFaceRecord
 10
0.0
 20
0.0
 30
0.0
 70
   128
 71
    55
 72
   -56
 73
   -22
  0
VERTEX
  5
6A9
330
64F
100
AcDbEntity
  8
3D-GENM
100
AcDbFaceRecord
 10
0.0
 20
0.0
 30
0.0
 70
   128
 71
    51
 72
   -52
 73
    22
 74
   -23
  0
VERTEX
  5
6AA
330
64F
100
AcDbEntity
  8
3D-GENM
100
AcDbFaceRecord
 10
0.0
 20
0.0
 30
0.0
 70
   128
 71
    53
 72
   -54
 73
   -22
  0
VERTEX
  5
6AB
330
64F
100
AcDbEntity
  8
3D-GENM
100
AcDbFaceRecord
 10
0.0
 20
0.0
 30
0.0
 70
   128
 71
    52
 72
   -53
 73
   -22
  0
VERTEX
  5
6AC
330
64F
100
AcDbEntity
  8
3D-GENM
100
AcDbFaceRecord
 10
0.0
 20
0.0
 30
0.0
 70
   128
 71
   -55
 72
   -22
 73
    54
  0
VERTEX
  5
6AD
330
64F
100
AcDbEntity
  8
3D-GENM
100
AcDbFaceRecord
 10
0.0
 20
0.0
 30
0.0
 70
   128
 71
    16
 72
   -17
 73
    20
 74
   -21
  0
VERTEX
  5
6AE
330
64F
100
AcDbEntity
  8
3D-GENM
100
AcDbFaceRecord
 10
0.0
 20
0.0
 30
0.0
 70
   128
 71
    17
 72
    18
 73
    19
 74
   -20
  0
VERTEX
  5
6AF
330
64F
100
AcDbEntity
  8
3D-GENM
100
AcDbFaceRecord
 10
0.0
 20
0.0
 30
0.0
 70
   128
 71
   -16
 72
    21
 73
   -22
 74
   -29
  0
SEQEND
  5
6B0
330
64F
100
AcDbEntity
  8
3D-GENM
  0
POLYLINE
  5
6B1
330
7F
100
AcDbEntity
  8
3D-GENM
100
AcDbPolyFaceMesh
 66
     1
 10
0.0
 20
0.0
 30
0.0
 70
    64
 71
    18
 72
    16
1001
REVIT
1002
{
1070
     4
1000
6208
1002
}
  0
VERTEX
  5
6B2
330
6B1
100
AcDbEntity
  8
3D-GENM
100
AcDbVertex
100
AcDbPolyFaceMeshVertex
 10
-4.999999880790709
 20
7.74999976158142
 30
2.098473608493804
 70
   192
  0
VERTEX
  5
6B3
330
6B1
100
AcDbEntity
  8
3D-GENM
100
AcDbVertex
100
AcDbPolyFaceMeshVertex
 10
-4.999999880790709
 20
7.74999976158142
 30
2.000000059604644
 70
   192
  0
VERTEX
  5
6B4
330
6B1
100
AcDbEntity
  8
3D-GENM
100
AcDbVertex
100
AcDbPolyFaceMeshVertex
 10
-5.129409670829772
 20
7.732963085174559
 30
2.000000059604644
 70
   192
  0
VERTEX
  5
6B5
330
6B1
100
AcDbEntity
  8
3D-GENM
100
AcDbVertex
100
AcDbPolyFaceMeshVertex
 10
-5.249999999999999
 20
7.683012485504149
 30
2.000000059604644
 70
   192
  0
VERTEX
  5
6B6
330
6B1
100
AcDbEntity
  8
3D-GENM
100
AcDbVertex
100
AcDbPolyFaceMeshVertex
 10
-5.353553295135497
 20
7.603553295135497
 30
2.000000059604644
 70
   192
  0
VERTEX
  5
6B7
330
6B1
100
AcDbEntity
  8
3D-GENM
100
AcDbVertex
100
AcDbPolyFaceMeshVertex
 10
-5.433012843132018
 20
7.499999999999999
 30
2.000000059604644
 70
   192
  0
VERTEX
  5
6B8
330
6B1
100
AcDbEntity
  8
3D-GENM
100
AcDbVertex
100
AcDbPolyFaceMeshVertex
 10
-5.482963085174559
 20
7.379409313201903
 30
2.000000059604644
 70
   192
  0
VERTEX
  5
6B9
330
6B1
100
AcDbEntity
  8
3D-GENM
100
AcDbVertex
100
AcDbPolyFaceMeshVertex
 10
-5.500000119209288
 20
7.250000238418578
 30
2.000000059604644
 70
   192
  0
VERTEX
  5
6BA
330
6B1
100
AcDbEntity
  8
3D-GENM
100
AcDbVertex
100
AcDbPolyFaceMeshVertex
 10
-5.461407423019408
 20
7.442621469497679
 30
2.007948160171508
 70
   192
  0
VERTEX
  5
6BB
330
6B1
100
AcDbEntity
  8
3D-GENM
100
AcDbVertex
100
AcDbPolyFaceMeshVertex
 10
-5.352321982383727
 20
7.604780673980712
 30
2.030099272727965
 70
   192
  0
VERTEX
  5
6BC
330
6B1
100
AcDbEntity
  8
3D-GENM
100
AcDbVertex
100
AcDbPolyFaceMeshVertex
 10
-5.190455317497252
 20
7.712305784225462
 30
2.062112152576446
 70
   192
  0
VERTEX
  5
6BD
330
6B1
100
AcDbEntity
  8
3D-GENM
100
AcDbVertex
100
AcDbPolyFaceMeshVertex
 10
-4.999999880790709
 20
7.74999976158142
 30
2.055833280086516
 70
   192
  0
VERTEX
  5
6BE
330
6B1
100
AcDbEntity
  8
3D-GENM
100
AcDbVertex
100
AcDbPolyFaceMeshVertex
 10
-5.474122524261473
 20
7.379158258438109
 30
2.005329430103301
 70
   192
  0
VERTEX
  5
6BF
330
6B1
100
AcDbEntity
  8
3D-GENM
100
AcDbVertex
100
AcDbPolyFaceMeshVertex
 10
-4.999999880790709
 20
7.74999976158142
 30
2.02791666984558
 70
   192
  0
VERTEX
  5
6C0
330
6B1
100
AcDbEntity
  8
3D-GENM
100
AcDbVertex
100
AcDbPolyFaceMeshVertex
 10
-4.999999880790709
 20
7.74999976158142
 30
2.07715344429016
 70
   192
  0
VERTEX
  5
6C1
330
6B1
100
AcDbEntity
  8
3D-GENM
100
AcDbVertex
100
AcDbPolyFaceMeshVertex
 10
-5.487061500549315
 20
7.314579248428343
 30
2.002664744853972
 70
   192
  0
VERTEX
  5
6C2
330
6B1
100
AcDbEntity
  8
3D-GENM
100
AcDbVertex
100
AcDbPolyFaceMeshVertex
 10
-5.490037322044371
 20
7.325675010681151
 30
2.000000059604644
 70
   192
  0
VERTEX
  5
6C3
330
6B1
100
AcDbEntity
  8
3D-GENM
100
AcDbVertex
100
AcDbPolyFaceMeshVertex
 10
-5.10458993911743
 20
7.729300260543822
 30
2.0785054564476
 70
   192
  0
VERTEX
  5
6C4
330
6B1
100
AcDbEntity
  8
3D-GENM
100
AcDbFaceRecord
 10
0.0
 20
0.0
 30
0.0
 70
   128
 71
    -9
 72
    -6
 73
    13
  0
VERTEX
  5
6C5
330
6B1
100
AcDbEntity
  8
3D-GENM
100
AcDbFaceRecord
 10
0.0
 20
0.0
 30
0.0
 70
   128
 71
   -11
 72
    15
 73
   -12
  0
VERTEX
  5
6C6
330
6B1
100
AcDbEntity
  8
3D-GENM
100
AcDbFaceRecord
 10
0.0
 20
0.0
 30
0.0
 70
   128
 71
     6
 72
    -7
 73
   -13
  0
VERTEX
  5
6C7
330
6B1
100
AcDbEntity
  8
3D-GENM
100
AcDbFaceRecord
 10
0.0
 20
0.0
 30
0.0
 70
   128
 71
    -6
 72
    -9
 73
     5
  0
VERTEX
  5
6C8
330
6B1
100
AcDbEntity
  8
3D-GENM
100
AcDbFaceRecord
 10
0.0
 20
0.0
 30
0.0
 70
   128
 71
   -16
 72
     7
 73
   -17
  0
VERTEX
  5
6C9
330
6B1
100
AcDbEntity
  8
3D-GENM
100
AcDbFaceRecord
 10
0.0
 20
0.0
 30
0.0
 70
   128
 71
    17
 72
     8
 73
   -16
  0
VERTEX
  5
6CA
330
6B1
100
AcDbEntity
  8
3D-GENM
100
AcDbFaceRecord
 10
0.0
 20
0.0
 30
0.0
 70
   128
 71
     9
 72
   -10
 73
    -5
  0
VERTEX
  5
6CB
330
6B1
100
AcDbEntity
  8
3D-GENM
100
AcDbFaceRecord
 10
0.0
 20
0.0
 30
0.0
 70
   128
 71
    18
 72
     1
 73
   -15
  0
VERTEX
  5
6CC
330
6B1
100
AcDbEntity
  8
3D-GENM
100
AcDbFaceRecord
 10
0.0
 20
0.0
 30
0.0
 70
   128
 71
    -7
 72
    16
 73
   -13
  0
VERTEX
  5
6CD
330
6B1
100
AcDbEntity
  8
3D-GENM
100
AcDbFaceRecord
 10
0.0
 20
0.0
 30
0.0
 70
   128
 71
   -10
 72
    12
 73
   -14
  0
VERTEX
  5
6CE
330
6B1
100
AcDbEntity
  8
3D-GENM
100
AcDbFaceRecord
 10
0.0
 20
0.0
 30
0.0
 70
   128
 71
     2
 72
    -3
 73
    14
  0
VERTEX
  5
6CF
330
6B1
100
AcDbEntity
  8
3D-GENM
100
AcDbFaceRecord
 10
0.0
 20
0.0
 30
0.0
 70
   128
 71
   -11
 72
   -12
 73
    10
  0
VERTEX
  5
6D0
330
6B1
100
AcDbEntity
  8
3D-GENM
100
AcDbFaceRecord
 10
0.0
 20
0.0
 30
0.0
 70
   128
 71
   -14
 72
    -4
 73
   -10
  0
VERTEX
  5
6D1
330
6B1
100
AcDbEntity
  8
3D-GENM
100
AcDbFaceRecord
 10
0.0
 20
0.0
 30
0.0
 70
   128
 71
   -14
 72
     3
 73
    -4
  0
VERTEX
  5
6D2
330
6B1
100
AcDbEntity
  8
3D-GENM
100
AcDbFaceRecord
 10
0.0
 20
0.0
 30
0.0
 70
   128
 71
   -10
 72
     4
 73
    -5
  0
VERTEX
  5
6D3
330
6B1
100
AcDbEntity
  8
3D-GENM
100
AcDbFaceRecord
 10
0.0
 20
0.0
 30
0.0
 70
   128
 71
   -15
 72
    11
 73
   -18
  0
SEQEND
  5
6D4
330
6B1
100
AcDbEntity
  8
3D-GENM
  0
POLYLINE
  5
6D5
330
7F
100
AcDbEntity
  8
3D-GENM
100
AcDbPolyFaceMesh
 66
     1
 10
0.0
 20
0.0
 30
0.0
 70
    64
 71
    18
 72
    16
1001
REVIT
1002
{
1070
     4
1000
6208
1002
}
  0
VERTEX
  5
6D6
330
6D5
100
AcDbEntity
  8
3D-GENM
100
AcDbVertex
100
AcDbPolyFaceMeshVertex
 10
4.999999880790709
 20
7.74999976158142
 30
2.000000059604644
 70
   192
  0
VERTEX
  5
6D7
330
6D5
100
AcDbEntity
  8
3D-GENM
100
AcDbVertex
100
AcDbPolyFaceMeshVertex
 10
4.999999880790709
 20
7.74999976158142
 30
2.098473608493804
 70
   192
  0
VERTEX
  5
6D8
330
6D5
100
AcDbEntity
  8
3D-GENM
100
AcDbVertex
100
AcDbPolyFaceMeshVertex
 10
5.190455317497252
 20
7.712305784225462
 30
2.062112152576446
 70
   192
  0
VERTEX
  5
6D9
330
6D5
100
AcDbEntity
  8
3D-GENM
100
AcDbVertex
100
AcDbPolyFaceMeshVertex
 10
5.352321982383727
 20
7.604780673980712
 30
2.030099272727965
 70
   192
  0
VERTEX
  5
6DA
330
6D5
100
AcDbEntity
  8
3D-GENM
100
AcDbVertex
100
AcDbPolyFaceMeshVertex
 10
5.461407423019408
 20
7.442621469497679
 30
2.007948160171508
 70
   192
  0
VERTEX
  5
6DB
330
6D5
100
AcDbEntity
  8
3D-GENM
100
AcDbVertex
100
AcDbPolyFaceMeshVertex
 10
5.500000119209288
 20
7.250000238418578
 30
2.000000059604644
 70
   192
  0
VERTEX
  5
6DC
330
6D5
100
AcDbEntity
  8
3D-GENM
100
AcDbVertex
100
AcDbPolyFaceMeshVertex
 10
5.482963085174559
 20
7.379409313201903
 30
2.000000059604644
 70
   192
  0
VERTEX
  5
6DD
330
6D5
100
AcDbEntity
  8
3D-GENM
100
AcDbVertex
100
AcDbPolyFaceMeshVertex
 10
5.433012843132018
 20
7.499999999999999
 30
2.000000059604644
 70
   192
  0
VERTEX
  5
6DE
330
6D5
100
AcDbEntity
  8
3D-GENM
100
AcDbVertex
100
AcDbPolyFaceMeshVertex
 10
5.353553295135497
 20
7.603553295135497
 30
2.000000059604644
 70
   192
  0
VERTEX
  5
6DF
330
6D5
100
AcDbEntity
  8
3D-GENM
100
AcDbVertex
100
AcDbPolyFaceMeshVertex
 10
5.249999999999999
 20
7.683012485504149
 30
2.000000059604644
 70
   192
  0
VERTEX
  5
6E0
330
6D5
100
AcDbEntity
  8
3D-GENM
100
AcDbVertex
100
AcDbPolyFaceMeshVertex
 10
5.129409670829772
 20
7.732963085174559
 30
2.000000059604644
 70
   192
  0
VERTEX
  5
6E1
330
6D5
100
AcDbEntity
  8
3D-GENM
100
AcDbVertex
100
AcDbPolyFaceMeshVertex
 10
4.999999880790709
 20
7.74999976158142
 30
2.055833280086516
 70
   192
  0
VERTEX
  5
6E2
330
6D5
100
AcDbEntity
  8
3D-GENM
100
AcDbVertex
100
AcDbPolyFaceMeshVertex
 10
5.474122524261473
 20
7.379158258438109
 30
2.005329430103301
 70
   192
  0
VERTEX
  5
6E3
330
6D5
100
AcDbEntity
  8
3D-GENM
100
AcDbVertex
100
AcDbPolyFaceMeshVertex
 10
4.999999880790709
 20
7.74999976158142
 30
2.07715344429016
 70
   192
  0
VERTEX
  5
6E4
330
6D5
100
AcDbEntity
  8
3D-GENM
100
AcDbVertex
100
AcDbPolyFaceMeshVertex
 10
4.999999880790709
 20
7.74999976158142
 30
2.02791666984558
 70
   192
  0
VERTEX
  5
6E5
330
6D5
100
AcDbEntity
  8
3D-GENM
100
AcDbVertex
100
AcDbPolyFaceMeshVertex
 10
5.487061500549315
 20
7.314579248428343
 30
2.002664744853972
 70
   192
  0
VERTEX
  5
6E6
330
6D5
100
AcDbEntity
  8
3D-GENM
100
AcDbVertex
100
AcDbPolyFaceMeshVertex
 10
5.10458993911743
 20
7.729300260543822
 30
2.0785054564476
 70
   192
  0
VERTEX
  5
6E7
330
6D5
100
AcDbEntity
  8
3D-GENM
100
AcDbVertex
100
AcDbPolyFaceMeshVertex
 10
5.490037322044371
 20
7.325675010681151
 30
2.000000059604644
 70
   192
  0
VERTEX
  5
6E8
330
6D5
100
AcDbEntity
  8
3D-GENM
100
AcDbFaceRecord
 10
0.0
 20
0.0
 30
0.0
 70
   128
 71
    17
 72
    -3
 73
   -14
  0
VERTEX
  5
6E9
330
6D5
100
AcDbEntity
  8
3D-GENM
100
AcDbFaceRecord
 10
0.0
 20
0.0
 30
0.0
 70
   128
 71
    -3
 72
    12
 73
   -14
  0
VERTEX
  5
6EA
330
6D5
100
AcDbEntity
  8
3D-GENM
100
AcDbFaceRecord
 10
0.0
 20
0.0
 30
0.0
 70
   128
 71
   -15
 72
    11
 73
     1
  0
VERTEX
  5
6EB
330
6D5
100
AcDbEntity
  8
3D-GENM
100
AcDbFaceRecord
 10
0.0
 20
0.0
 30
0.0
 70
   128
 71
   -11
 72
   -15
 73
    10
  0
VERTEX
  5
6EC
330
6D5
100
AcDbEntity
  8
3D-GENM
100
AcDbFaceRecord
 10
0.0
 20
0.0
 30
0.0
 70
   128
 71
    14
 72
     2
 73
   -17
  0
VERTEX
  5
6ED
330
6D5
100
AcDbEntity
  8
3D-GENM
100
AcDbFaceRecord
 10
0.0
 20
0.0
 30
0.0
 70
   128
 71
    -7
 72
    13
 73
   -16
  0
VERTEX
  5
6EE
330
6D5
100
AcDbEntity
  8
3D-GENM
100
AcDbFaceRecord
 10
0.0
 20
0.0
 30
0.0
 70
   128
 71
    15
 72
   -12
 73
    -4
  0
VERTEX
  5
6EF
330
6D5
100
AcDbEntity
  8
3D-GENM
100
AcDbFaceRecord
 10
0.0
 20
0.0
 30
0.0
 70
   128
 71
   -15
 72
    -4
 73
   -10
  0
VERTEX
  5
6F0
330
6D5
100
AcDbEntity
  8
3D-GENM
100
AcDbFaceRecord
 10
0.0
 20
0.0
 30
0.0
 70
   128
 71
     4
 72
    -5
 73
    -9
  0
VERTEX
  5
6F1
330
6D5
100
AcDbEntity
  8
3D-GENM
100
AcDbFaceRecord
 10
0.0
 20
0.0
 30
0.0
 70
   128
 71
    -4
 72
   -12
 73
     3
  0
VERTEX
  5
6F2
330
6D5
100
AcDbEntity
  8
3D-GENM
100
AcDbFaceRecord
 10
0.0
 20
0.0
 30
0.0
 70
   128
 71
    -9
 72
    -5
 73
     8
  0
VERTEX
  5
6F3
330
6D5
100
AcDbEntity
  8
3D-GENM
100
AcDbFaceRecord
 10
0.0
 20
0.0
 30
0.0
 70
   128
 71
    -4
 72
     9
 73
   -10
  0
VERTEX
  5
6F4
330
6D5
100
AcDbEntity
  8
3D-GENM
100
AcDbFaceRecord
 10
0.0
 20
0.0
 30
0.0
 70
   128
 71
   -13
 72
    -8
 73
     5
  0
VERTEX
  5
6F5
330
6D5
100
AcDbEntity
  8
3D-GENM
100
AcDbFaceRecord
 10
0.0
 20
0.0
 30
0.0
 70
   128
 71
    -7
 72
   -16
 73
    18
  0
VERTEX
  5
6F6
330
6D5
100
AcDbEntity
  8
3D-GENM
100
AcDbFaceRecord
 10
0.0
 20
0.0
 30
0.0
 70
   128
 71
    -8
 72
   -13
 73
     7
  0
VERTEX
  5
6F7
330
6D5
100
AcDbEntity
  8
3D-GENM
100
AcDbFaceRecord
 10
0.0
 20
0.0
 30
0.0
 70
   128
 71
    16
 72
     6
 73
   -18
  0
SEQEND
  5
6F8
330
6D5
100
AcDbEntity
  8
3D-GENM
  0
POLYLINE
  5
6F9
330
7F
100
AcDbEntity
  8
3D-GENM
100
AcDbPolyFaceMesh
 66
     1
 10
0.0
 20
0.0
 30
0.0
 70
    64
 71
    18
 72
    16
1001
REVIT
1002
{
1070
     4
1000
6208
1002
}
  0
VERTEX
  5
6FA
330
6F9
100
AcDbEntity
  8
3D-GENM
100
AcDbVertex
100
AcDbPolyFaceMeshVertex
 10
4.999999880790709
 20
-7.74999976158142
 30
2.098473608493804
 70
   192
  0
VERTEX
  5
6FB
330
6F9
100
AcDbEntity
  8
3D-GENM
100
AcDbVertex
100
AcDbPolyFaceMeshVertex
 10
4.999999880790709
 20
-7.74999976158142
 30
2.000000059604644
 70
   192
  0
VERTEX
  5
6FC
330
6F9
100
AcDbEntity
  8
3D-GENM
100
AcDbVertex
100
AcDbPolyFaceMeshVertex
 10
5.129409670829772
 20
-7.732963085174559
 30
2.000000059604644
 70
   192
  0
VERTEX
  5
6FD
330
6F9
100
AcDbEntity
  8
3D-GENM
100
AcDbVertex
100
AcDbPolyFaceMeshVertex
 10
5.249999999999999
 20
-7.683012485504149
 30
2.000000059604644
 70
   192
  0
VERTEX
  5
6FE
330
6F9
100
AcDbEntity
  8
3D-GENM
100
AcDbVertex
100
AcDbPolyFaceMeshVertex
 10
5.353553295135497
 20
-7.603553295135497
 30
2.000000059604644
 70
   192
  0
VERTEX
  5
6FF
330
6F9
100
AcDbEntity
  8
3D-GENM
100
AcDbVertex
100
AcDbPolyFaceMeshVertex
 10
5.433012843132018
 20
-7.499999999999999
 30
2.000000059604644
 70
   192
  0
VERTEX
  5
700
330
6F9
100
AcDbEntity
  8
3D-GENM
100
AcDbVertex
100
AcDbPolyFaceMeshVertex
 10
5.482963085174559
 20
-7.379409313201903
 30
2.000000059604644
 70
   192
  0
VERTEX
  5
701
330
6F9
100
AcDbEntity
  8
3D-GENM
100
AcDbVertex
100
AcDbPolyFaceMeshVertex
 10
5.500000119209288
 20
-7.250000238418578
 30
2.000000059604644
 70
   192
  0
VERTEX
  5
702
330
6F9
100
AcDbEntity
  8
3D-GENM
100
AcDbVertex
100
AcDbPolyFaceMeshVertex
 10
5.461407423019408
 20
-7.442621469497679
 30
2.007948160171508
 70
   192
  0
VERTEX
  5
703
330
6F9
100
AcDbEntity
  8
3D-GENM
100
AcDbVertex
100
AcDbPolyFaceMeshVertex
 10
5.352321982383727
 20
-7.604780673980712
 30
2.030099272727965
 70
   192
  0
VERTEX
  5
704
330
6F9
100
AcDbEntity
  8
3D-GENM
100
AcDbVertex
100
AcDbPolyFaceMeshVertex
 10
5.190455317497252
 20
-7.712305784225462
 30
2.062112152576446
 70
   192
  0
VERTEX
  5
705
330
6F9
100
AcDbEntity
  8
3D-GENM
100
AcDbVertex
100
AcDbPolyFaceMeshVertex
 10
4.999999880790709
 20
-7.74999976158142
 30
2.055833280086516
 70
   192
  0
VERTEX
  5
706
330
6F9
100
AcDbEntity
  8
3D-GENM
100
AcDbVertex
100
AcDbPolyFaceMeshVertex
 10
5.474122524261473
 20
-7.379158258438109
 30
2.005329430103301
 70
   192
  0
VERTEX
  5
707
330
6F9
100
AcDbEntity
  8
3D-GENM
100
AcDbVertex
100
AcDbPolyFaceMeshVertex
 10
4.999999880790709
 20
-7.74999976158142
 30
2.02791666984558
 70
   192
  0
VERTEX
  5
708
330
6F9
100
AcDbEntity
  8
3D-GENM
100
AcDbVertex
100
AcDbPolyFaceMeshVertex
 10
4.999999880790709
 20
-7.74999976158142
 30
2.07715344429016
 70
   192
  0
VERTEX
  5
709
330
6F9
100
AcDbEntity
  8
3D-GENM
100
AcDbVertex
100
AcDbPolyFaceMeshVertex
 10
5.487061500549315
 20
-7.314579248428343
 30
2.002664744853972
 70
   192
  0
VERTEX
  5
70A
330
6F9
100
AcDbEntity
  8
3D-GENM
100
AcDbVertex
100
AcDbPolyFaceMeshVertex
 10
5.490037322044371
 20
-7.325675010681151
 30
2.000000059604644
 70
   192
  0
VERTEX
  5
70B
330
6F9
100
AcDbEntity
  8
3D-GENM
100
AcDbVertex
100
AcDbPolyFaceMeshVertex
 10
5.10458993911743
 20
-7.729300260543822
 30
2.0785054564476
 70
   192
  0
VERTEX
  5
70C
330
6F9
100
AcDbEntity
  8
3D-GENM
100
AcDbFaceRecord
 10
0.0
 20
0.0
 30
0.0
 70
   128
 71
    -9
 72
    -6
 73
    13
  0
VERTEX
  5
70D
330
6F9
100
AcDbEntity
  8
3D-GENM
100
AcDbFaceRecord
 10
0.0
 20
0.0
 30
0.0
 70
   128
 71
   -11
 72
    15
 73
   -12
  0
VERTEX
  5
70E
330
6F9
100
AcDbEntity
  8
3D-GENM
100
AcDbFaceRecord
 10
0.0
 20
0.0
 30
0.0
 70
   128
 71
     6
 72
    -7
 73
   -13
  0
VERTEX
  5
70F
330
6F9
100
AcDbEntity
  8
3D-GENM
100
AcDbFaceRecord
 10
0.0
 20
0.0
 30
0.0
 70
   128
 71
    -6
 72
    -9
 73
     5
  0
VERTEX
  5
710
330
6F9
100
AcDbEntity
  8
3D-GENM
100
AcDbFaceRecord
 10
0.0
 20
0.0
 30
0.0
 70
   128
 71
   -16
 72
     7
 73
   -17
  0
VERTEX
  5
711
330
6F9
100
AcDbEntity
  8
3D-GENM
100
AcDbFaceRecord
 10
0.0
 20
0.0
 30
0.0
 70
   128
 71
    17
 72
     8
 73
   -16
  0
VERTEX
  5
712
330
6F9
100
AcDbEntity
  8
3D-GENM
100
AcDbFaceRecord
 10
0.0
 20
0.0
 30
0.0
 70
   128
 71
     9
 72
   -10
 73
    -5
  0
VERTEX
  5
713
330
6F9
100
AcDbEntity
  8
3D-GENM
100
AcDbFaceRecord
 10
0.0
 20
0.0
 30
0.0
 70
   128
 71
    18
 72
     1
 73
   -15
  0
VERTEX
  5
714
330
6F9
100
AcDbEntity
  8
3D-GENM
100
AcDbFaceRecord
 10
0.0
 20
0.0
 30
0.0
 70
   128
 71
    -7
 72
    16
 73
   -13
  0
VERTEX
  5
715
330
6F9
100
AcDbEntity
  8
3D-GENM
100
AcDbFaceRecord
 10
0.0
 20
0.0
 30
0.0
 70
   128
 71
   -10
 72
    12
 73
   -14
  0
VERTEX
  5
716
330
6F9
100
AcDbEntity
  8
3D-GENM
100
AcDbFaceRecord
 10
0.0
 20
0.0
 30
0.0
 70
   128
 71
     2
 72
    -3
 73
    14
  0
VERTEX
  5
717
330
6F9
100
AcDbEntity
  8
3D-GENM
100
AcDbFaceRecord
 10
0.0
 20
0.0
 30
0.0
 70
   128
 71
   -11
 72
   -12
 73
    10
  0
VERTEX
  5
718
330
6F9
100
AcDbEntity
  8
3D-GENM
100
AcDbFaceRecord
 10
0.0
 20
0.0
 30
0.0
 70
   128
 71
   -14
 72
    -4
 73
   -10
  0
VERTEX
  5
719
330
6F9
100
AcDbEntity
  8
3D-GENM
100
AcDbFaceRecord
 10
0.0
 20
0.0
 30
0.0
 70
   128
 71
   -14
 72
     3
 73
    -4
  0
VERTEX
  5
71A
330
6F9
100
AcDbEntity
  8
3D-GENM
100
AcDbFaceRecord
 10
0.0
 20
0.0
 30
0.0
 70
   128
 71
   -10
 72
     4
 73
    -5
  0
VERTEX
  5
71B
330
6F9
100
AcDbEntity
  8
3D-GENM
100
AcDbFaceRecord
 10
0.0
 20
0.0
 30
0.0
 70
   128
 71
   -15
 72
    11
 73
   -18
  0
SEQEND
  5
71C
330
6F9
100
AcDbEntity
  8
3D-GENM
  0
POLYLINE
  5
71D
330
7F
100
AcDbEntity
  8
3D-GENM
100
AcDbPolyFaceMesh
 66
     1
 10
0.0
 20
0.0
 30
0.0
 70
    64
 71
    18
 72
    16
1001
REVIT
1002
{
1070
     4
1000
6208
1002
}
  0
VERTEX
  5
71E
330
71D
100
AcDbEntity
  8
3D-GENM
100
AcDbVertex
100
AcDbPolyFaceMeshVertex
 10
-4.999999880790709
 20
-7.74999976158142
 30
2.000000059604644
 70
   192
  0
VERTEX
  5
71F
330
71D
100
AcDbEntity
  8
3D-GENM
100
AcDbVertex
100
AcDbPolyFaceMeshVertex
 10
-4.999999880790709
 20
-7.74999976158142
 30
2.098473608493804
 70
   192
  0
VERTEX
  5
720
330
71D
100
AcDbEntity
  8
3D-GENM
100
AcDbVertex
100
AcDbPolyFaceMeshVertex
 10
-5.190455317497252
 20
-7.712305784225462
 30
2.062112152576446
 70
   192
  0
VERTEX
  5
721
330
71D
100
AcDbEntity
  8
3D-GENM
100
AcDbVertex
100
AcDbPolyFaceMeshVertex
 10
-5.352321982383727
 20
-7.604780673980712
 30
2.030099272727965
 70
   192
  0
VERTEX
  5
722
330
71D
100
AcDbEntity
  8
3D-GENM
100
AcDbVertex
100
AcDbPolyFaceMeshVertex
 10
-5.461407423019408
 20
-7.442621469497679
 30
2.007948160171508
 70
   192
  0
VERTEX
  5
723
330
71D
100
AcDbEntity
  8
3D-GENM
100
AcDbVertex
100
AcDbPolyFaceMeshVertex
 10
-5.500000119209288
 20
-7.250000238418578
 30
2.000000059604644
 70
   192
  0
VERTEX
  5
724
330
71D
100
AcDbEntity
  8
3D-GENM
100
AcDbVertex
100
AcDbPolyFaceMeshVertex
 10
-5.482963085174559
 20
-7.379409313201903
 30
2.000000059604644
 70
   192
  0
VERTEX
  5
725
330
71D
100
AcDbEntity
  8
3D-GENM
100
AcDbVertex
100
AcDbPolyFaceMeshVertex
 10
-5.433012843132018
 20
-7.499999999999999
 30
2.000000059604644
 70
   192
  0
VERTEX
  5
726
330
71D
100
AcDbEntity
  8
3D-GENM
100
AcDbVertex
100
AcDbPolyFaceMeshVertex
 10
-5.353553295135497
 20
-7.603553295135497
 30
2.000000059604644
 70
   192
  0
VERTEX
  5
727
330
71D
100
AcDbEntity
  8
3D-GENM
100
AcDbVertex
100
AcDbPolyFaceMeshVertex
 10
-5.249999999999999
 20
-7.683012485504149
 30
2.000000059604644
 70
   192
  0
VERTEX
  5
728
330
71D
100
AcDbEntity
  8
3D-GENM
100
AcDbVertex
100
AcDbPolyFaceMeshVertex
 10
-5.129409670829772
 20
-7.732963085174559
 30
2.000000059604644
 70
   192
  0
VERTEX
  5
729
330
71D
100
AcDbEntity
  8
3D-GENM
100
AcDbVertex
100
AcDbPolyFaceMeshVertex
 10
-4.999999880790709
 20
-7.74999976158142
 30
2.055833280086516
 70
   192
  0
VERTEX
  5
72A
330
71D
100
AcDbEntity
  8
3D-GENM
100
AcDbVertex
100
AcDbPolyFaceMeshVertex
 10
-5.474122524261473
 20
-7.379158258438109
 30
2.005329430103301
 70
   192
  0
VERTEX
  5
72B
330
71D
100
AcDbEntity
  8
3D-GENM
100
AcDbVertex
100
AcDbPolyFaceMeshVertex
 10
-4.999999880790709
 20
-7.74999976158142
 30
2.07715344429016
 70
   192
  0
VERTEX
  5
72C
330
71D
100
AcDbEntity
  8
3D-GENM
100
AcDbVertex
100
AcDbPolyFaceMeshVertex
 10
-4.999999880790709
 20
-7.74999976158142
 30
2.02791666984558
 70
   192
  0
VERTEX
  5
72D
330
71D
100
AcDbEntity
  8
3D-GENM
100
AcDbVertex
100
AcDbPolyFaceMeshVertex
 10
-5.487061500549315
 20
-7.314579248428343
 30
2.002664744853972
 70
   192
  0
VERTEX
  5
72E
330
71D
100
AcDbEntity
  8
3D-GENM
100
AcDbVertex
100
AcDbPolyFaceMeshVertex
 10
-5.10458993911743
 20
-7.729300260543822
 30
2.0785054564476
 70
   192
  0
VERTEX
  5
72F
330
71D
100
AcDbEntity
  8
3D-GENM
100
AcDbVertex
100
AcDbPolyFaceMeshVertex
 10
-5.490037322044371
 20
-7.325675010681151
 30
2.000000059604644
 70
   192
  0
VERTEX
  5
730
330
71D
100
AcDbEntity
  8
3D-GENM
100
AcDbFaceRecord
 10
0.0
 20
0.0
 30
0.0
 70
   128
 71
    17
 72
    -3
 73
   -14
  0
VERTEX
  5
731
330
71D
100
AcDbEntity
  8
3D-GENM
100
AcDbFaceRecord
 10
0.0
 20
0.0
 30
0.0
 70
   128
 71
    -3
 72
    12
 73
   -14
  0
VERTEX
  5
732
330
71D
100
AcDbEntity
  8
3D-GENM
100
AcDbFaceRecord
 10
0.0
 20
0.0
 30
0.0
 70
   128
 71
   -15
 72
    11
 73
     1
  0
VERTEX
  5
733
330
71D
100
AcDbEntity
  8
3D-GENM
100
AcDbFaceRecord
 10
0.0
 20
0.0
 30
0.0
 70
   128
 71
   -11
 72
   -15
 73
    10
  0
VERTEX
  5
734
330
71D
100
AcDbEntity
  8
3D-GENM
100
AcDbFaceRecord
 10
0.0
 20
0.0
 30
0.0
 70
   128
 71
    14
 72
     2
 73
   -17
  0
VERTEX
  5
735
330
71D
100
AcDbEntity
  8
3D-GENM
100
AcDbFaceRecord
 10
0.0
 20
0.0
 30
0.0
 70
   128
 71
    -7
 72
    13
 73
   -16
  0
VERTEX
  5
736
330
71D
100
AcDbEntity
  8
3D-GENM
100
AcDbFaceRecord
 10
0.0
 20
0.0
 30
0.0
 70
   128
 71
    15
 72
   -12
 73
    -4
  0
VERTEX
  5
737
330
71D
100
AcDbEntity
  8
3D-GENM
100
AcDbFaceRecord
 10
0.0
 20
0.0
 30
0.0
 70
   128
 71
   -15
 72
    -4
 73
   -10
  0
VERTEX
  5
738
330
71D
100
AcDbEntity
  8
3D-GENM
100
AcDbFaceRecord
 10
0.0
 20
0.0
 30
0.0
 70
   128
 71
     4
 72
    -5
 73
    -9
  0
VERTEX
  5
739
330
71D
100
AcDbEntity
  8
3D-GENM
100
AcDbFaceRecord
 10
0.0
 20
0.0
 30
0.0
 70
   128
 71
    -4
 72
   -12
 73
     3
  0
VERTEX
  5
73A
330
71D
100
AcDbEntity
  8
3D-GENM
100
AcDbFaceRecord
 10
0.0
 20
0.0
 30
0.0
 70
   128
 71
    -9
 72
    -5
 73
     8
  0
VERTEX
  5
73B
330
71D
100
AcDbEntity
  8
3D-GENM
100
AcDbFaceRecord
 10
0.0
 20
0.0
 30
0.0
 70
   128
 71
    -4
 72
     9
 73
   -10
  0
VERTEX
  5
73C
330
71D
100
AcDbEntity
  8
3D-GENM
100
AcDbFaceRecord
 10
0.0
 20
0.0
 30
0.0
 70
   128
 71
   -13
 72
    -8
 73
     5
  0
VERTEX
  5
73D
330
71D
100
AcDbEntity
  8
3D-GENM
100
AcDbFaceRecord
 10
0.0
 20
0.0
 30
0.0
 70
   128
 71
    -7
 72
   -16
 73
    18
  0
VERTEX
  5
73E
330
71D
100
AcDbEntity
  8
3D-GENM
100
AcDbFaceRecord
 10
0.0
 20
0.0
 30
0.0
 70
   128
 71
    -8
 72
   -13
 73
     7
  0
VERTEX
  5
73F
330
71D
100
AcDbEntity
  8
3D-GENM
100
AcDbFaceRecord
 10
0.0
 20
0.0
 30
0.0
 70
   128
 71
    16
 72
     6
 73
   -18
  0
SEQEND
  5
740
330
71D
100
AcDbEntity
  8
3D-GENM
  0
POLYLINE
  5
741
330
7F
100
AcDbEntity
  8
3D-GENM
100
AcDbPolyFaceMesh
 66
     1
 10
0.0
 20
0.0
 30
0.0
 70
    64
 71
     5
 72
     2
1001
REVIT
1002
{
1070
     4
1000
6208
1002
}
  0
VERTEX
  5
742
330
741
100
AcDbEntity
  8
3D-GENM
100
AcDbVertex
100
AcDbPolyFaceMeshVertex
 10
-3.437500119209289
 20
0.8895238637924192
 30
2.000000059604644
 70
   192
  0
VERTEX
  5
743
330
741
100
AcDbEntity
  8
3D-GENM
100
AcDbVertex
100
AcDbPolyFaceMeshVertex
 10
-3.437500119209289
 20
0.8895238637924192
 30
2.344170749187469
 70
   192
  0
VERTEX
  5
744
330
741
100
AcDbEntity
  8
3D-GENM
100
AcDbVertex
100
AcDbPolyFaceMeshVertex
 10
0.0000000000007514
 20
0.8895238637924192
 30
2.562500059604644
 70
   192
  0
VERTEX
  5
745
330
741
100
AcDbEntity
  8
3D-GENM
100
AcDbVertex
100
AcDbPolyFaceMeshVertex
 10
3.437500119209289
 20
0.8895238637924192
 30
2.344170749187469
 70
   192
  0
VERTEX
  5
746
330
741
100
AcDbEntity
  8
3D-GENM
100
AcDbVertex
100
AcDbPolyFaceMeshVertex
 10
3.437500119209289
 20
0.8895238637924192
 30
2.000000059604644
 70
   192
  0
VERTEX
  5
747
330
741
100
AcDbEntity
  8
3D-GENM
100
AcDbFaceRecord
 10
0.0
 20
0.0
 30
0.0
 70
   128
 71
     3
 72
     2
 73
     1
 74
    -5
  0
VERTEX
  5
748
330
741
100
AcDbEntity
  8
3D-GENM
100
AcDbFaceRecord
 10
0.0
 20
0.0
 30
0.0
 70
   128
 71
     4
 72
    -3
 73
     5
  0
SEQEND
  5
749
330
741
100
AcDbEntity
  8
3D-GENM
  0
POLYLINE
  5
74A
330
7F
100
AcDbEntity
  8
3D-GENM
100
AcDbPolyFaceMesh
 66
     1
 10
0.0
 20
0.0
 30
0.0
 70
    64
 71
    12
 72
    10
1001
REVIT
1002
{
1070
     4
1000
6208
1002
}
  0
VERTEX
  5
74B
330
74A
100
AcDbEntity
  8
3D-GENM
100
AcDbVertex
100
AcDbPolyFaceMeshVertex
 10
-3.566909551620482
 20
0.8724868297576902
 30
2.000000059604644
 70
   192
  0
VERTEX
  5
74C
330
74A
100
AcDbEntity
  8
3D-GENM
100
AcDbVertex
100
AcDbPolyFaceMeshVertex
 10
-3.68749988079071
 20
0.8225365877151487
 30
2.000000059604644
 70
   192
  0
VERTEX
  5
74D
330
74A
100
AcDbEntity
  8
3D-GENM
100
AcDbVertex
100
AcDbPolyFaceMeshVertex
 10
-3.791053533554076
 20
0.7430772632360458
 30
2.000000059604644
 70
   192
  0
VERTEX
  5
74E
330
74A
100
AcDbEntity
  8
3D-GENM
100
AcDbVertex
100
AcDbPolyFaceMeshVertex
 10
-3.870512723922729
 20
0.6395238786935806
 30
2.000000059604644
 70
   192
  0
VERTEX
  5
74F
330
74A
100
AcDbEntity
  8
3D-GENM
100
AcDbVertex
100
AcDbPolyFaceMeshVertex
 10
-3.92046296596527
 20
0.5189334154129028
 30
2.000000059604644
 70
   192
  0
VERTEX
  5
750
330
74A
100
AcDbEntity
  8
3D-GENM
100
AcDbVertex
100
AcDbPolyFaceMeshVertex
 10
-3.937499999999999
 20
0.3895238935947418
 30
2.000000059604644
 70
   192
  0
VERTEX
  5
751
330
74A
100
AcDbEntity
  8
3D-GENM
100
AcDbVertex
100
AcDbPolyFaceMeshVertex
 10
-3.937499999999999
 20
0.3895238935947418
 30
2.275674462318419
 70
   192
  0
VERTEX
  5
752
330
74A
100
AcDbEntity
  8
3D-GENM
100
AcDbVertex
100
AcDbPolyFaceMeshVertex
 10
-3.899248838424682
 20
0.5813260674476623
 30
2.281249344348907
 70
   192
  0
VERTEX
  5
753
330
74A
100
AcDbEntity
  8
3D-GENM
100
AcDbVertex
100
AcDbPolyFaceMeshVertex
 10
-3.790680527687072
 20
0.7434498667716979
 30
2.296769499778747
 70
   192
  0
VERTEX
  5
754
330
74A
100
AcDbEntity
  8
3D-GENM
100
AcDbVertex
100
AcDbPolyFaceMeshVertex
 10
-3.6287122964859
 20
0.8515171408653257
 30
2.319092988967895
 70
   192
  0
VERTEX
  5
755
330
74A
100
AcDbEntity
  8
3D-GENM
100
AcDbVertex
100
AcDbPolyFaceMeshVertex
 10
-3.437500119209289
 20
0.8895238637924192
 30
2.344170749187469
 70
   192
  0
VERTEX
  5
756
330
74A
100
AcDbEntity
  8
3D-GENM
100
AcDbVertex
100
AcDbPolyFaceMeshVertex
 10
-3.437500119209289
 20
0.8895238637924192
 30
2.000000059604644
 70
   192
  0
VERTEX
  5
757
330
74A
100
AcDbEntity
  8
3D-GENM
100
AcDbFaceRecord
 10
0.0
 20
0.0
 30
0.0
 70
   128
 71
     1
 72
   -12
 73
   -10
  0
VERTEX
  5
758
330
74A
100
AcDbEntity
  8
3D-GENM
100
AcDbFaceRecord
 10
0.0
 20
0.0
 30
0.0
 70
   128
 71
     2
 72
    -1
 73
   -10
  0
VERTEX
  5
759
330
74A
100
AcDbEntity
  8
3D-GENM
100
AcDbFaceRecord
 10
0.0
 20
0.0
 30
0.0
 70
   128
 71
    12
 72
    11
 73
   -10
  0
VERTEX
  5
75A
330
74A
100
AcDbEntity
  8
3D-GENM
100
AcDbFaceRecord
 10
0.0
 20
0.0
 30
0.0
 70
   128
 71
    -2
 72
    10
 73
    -9
  0
VERTEX
  5
75B
330
74A
100
AcDbEntity
  8
3D-GENM
100
AcDbFaceRecord
 10
0.0
 20
0.0
 30
0.0
 70
   128
 71
    -9
 72
     3
 73
    -2
  0
VERTEX
  5
75C
330
74A
100
AcDbEntity
  8
3D-GENM
100
AcDbFaceRecord
 10
0.0
 20
0.0
 30
0.0
 70
   128
 71
     4
 72
    -3
 73
    -8
  0
VERTEX
  5
75D
330
74A
100
AcDbEntity
  8
3D-GENM
100
AcDbFaceRecord
 10
0.0
 20
0.0
 30
0.0
 70
   128
 71
     5
 72
    -4
 73
    -8
  0
VERTEX
  5
75E
330
74A
100
AcDbEntity
  8
3D-GENM
100
AcDbFaceRecord
 10
0.0
 20
0.0
 30
0.0
 70
   128
 71
     8
 72
    -7
 73
    -5
  0
VERTEX
  5
75F
330
74A
100
AcDbEntity
  8
3D-GENM
100
AcDbFaceRecord
 10
0.0
 20
0.0
 30
0.0
 70
   128
 71
     6
 72
    -5
 73
     7
  0
VERTEX
  5
760
330
74A
100
AcDbEntity
  8
3D-GENM
100
AcDbFaceRecord
 10
0.0
 20
0.0
 30
0.0
 70
   128
 71
     9
 72
    -8
 73
    -3
  0
SEQEND
  5
761
330
74A
100
AcDbEntity
  8
3D-GENM
  0
POLYLINE
  5
762
330
7F
100
AcDbEntity
  8
3D-GENM
100
AcDbPolyFaceMesh
 66
     1
 10
0.0
 20
0.0
 30
0.0
 70
    64
 71
     4
 72
     1
1001
REVIT
1002
{
1070
     4
1000
6208
1002
}
  0
VERTEX
  5
763
330
762
100
AcDbEntity
  8
3D-GENM
100
AcDbVertex
100
AcDbPolyFaceMeshVertex
 10
-3.937499999999999
 20
-5.61047601699829
 30
2.000000059604644
 70
   192
  0
VERTEX
  5
764
330
762
100
AcDbEntity
  8
3D-GENM
100
AcDbVertex
100
AcDbPolyFaceMeshVertex
 10
-3.937499999999999
 20
-5.61047601699829
 30
2.275674462318419
 70
   192
  0
VERTEX
  5
765
330
762
100
AcDbEntity
  8
3D-GENM
100
AcDbVertex
100
AcDbPolyFaceMeshVertex
 10
-3.937499999999999
 20
0.3895238935947418
 30
2.275674462318419
 70
   192
  0
VERTEX
  5
766
330
762
100
AcDbEntity
  8
3D-GENM
100
AcDbVertex
100
AcDbPolyFaceMeshVertex
 10
-3.937499999999999
 20
0.3895238935947418
 30
2.000000059604644
 70
   192
  0
VERTEX
  5
767
330
762
100
AcDbEntity
  8
3D-GENM
100
AcDbFaceRecord
 10
0.0
 20
0.0
 30
0.0
 70
   128
 71
     4
 72
     3
 73
     2
 74
     1
  0
SEQEND
  5
768
330
762
100
AcDbEntity
  8
3D-GENM
  0
POLYLINE
  5
769
330
7F
100
AcDbEntity
  8
3D-GENM
100
AcDbPolyFaceMesh
 66
     1
 10
0.0
 20
0.0
 30
0.0
 70
    64
 71
    12
 72
    10
1001
REVIT
1002
{
1070
     4
1000
6208
1002
}
  0
VERTEX
  5
76A
330
769
100
AcDbEntity
  8
3D-GENM
100
AcDbVertex
100
AcDbPolyFaceMeshVertex
 10
-3.92046296596527
 20
-5.739885807037352
 30
2.000000059604644
 70
   192
  0
VERTEX
  5
76B
330
769
100
AcDbEntity
  8
3D-GENM
100
AcDbVertex
100
AcDbPolyFaceMeshVertex
 10
-3.870512723922729
 20
-5.860476136207579
 30
2.000000059604644
 70
   192
  0
VERTEX
  5
76C
330
769
100
AcDbEntity
  8
3D-GENM
100
AcDbVertex
100
AcDbPolyFaceMeshVertex
 10
-3.791053533554076
 20
-5.964029431343077
 30
2.000000059604644
 70
   192
  0
VERTEX
  5
76D
330
769
100
AcDbEntity
  8
3D-GENM
100
AcDbVertex
100
AcDbPolyFaceMeshVertex
 10
-3.68749988079071
 20
-6.043488979339598
 30
2.000000059604644
 70
   192
  0
VERTEX
  5
76E
330
769
100
AcDbEntity
  8
3D-GENM
100
AcDbVertex
100
AcDbPolyFaceMeshVertex
 10
-3.566909551620482
 20
-6.093438863754271
 30
2.000000059604644
 70
   192
  0
VERTEX
  5
76F
330
769
100
AcDbEntity
  8
3D-GENM
100
AcDbVertex
100
AcDbPolyFaceMeshVertex
 10
-3.437500119209289
 20
-6.110476255416869
 30
2.000000059604644
 70
   192
  0
VERTEX
  5
770
330
769
100
AcDbEntity
  8
3D-GENM
100
AcDbVertex
100
AcDbPolyFaceMeshVertex
 10
-3.437500119209289
 20
-6.110476255416869
 30
2.344170749187469
 70
   192
  0
VERTEX
  5
771
330
769
100
AcDbEntity
  8
3D-GENM
100
AcDbVertex
100
AcDbPolyFaceMeshVertex
 10
-3.62783646583557
 20
-6.072830915451048
 30
2.31921100616455
 70
   192
  0
VERTEX
  5
772
330
769
100
AcDbEntity
  8
3D-GENM
100
AcDbVertex
100
AcDbPolyFaceMeshVertex
 10
-3.789846181869506
 20
-5.965232491493224
 30
2.296886980533599
 70
   192
  0
VERTEX
  5
773
330
769
100
AcDbEntity
  8
3D-GENM
100
AcDbVertex
100
AcDbPolyFaceMeshVertex
 10
-3.898899793624877
 20
-5.80311620235443
 30
2.281299948692321
 70
   192
  0
VERTEX
  5
774
330
769
100
AcDbEntity
  8
3D-GENM
100
AcDbVertex
100
AcDbPolyFaceMeshVertex
 10
-3.937499999999999
 20
-5.61047601699829
 30
2.275674462318419
 70
   192
  0
VERTEX
  5
775
330
769
100
AcDbEntity
  8
3D-GENM
100
AcDbVertex
100
AcDbPolyFaceMeshVertex
 10
-3.937499999999999
 20
-5.61047601699829
 30
2.000000059604644
 70
   192
  0
VERTEX
  5
776
330
769
100
AcDbEntity
  8
3D-GENM
100
AcDbFaceRecord
 10
0.0
 20
0.0
 30
0.0
 70
   128
 71
     1
 72
    12
 73
   -11
  0
VERTEX
  5
777
330
769
100
AcDbEntity
  8
3D-GENM
100
AcDbFaceRecord
 10
0.0
 20
0.0
 30
0.0
 70
   128
 71
     2
 72
    -1
 73
   -10
  0
VERTEX
  5
778
330
769
100
AcDbEntity
  8
3D-GENM
100
AcDbFaceRecord
 10
0.0
 20
0.0
 30
0.0
 70
   128
 71
    11
 72
   -10
 73
    -1
  0
VERTEX
  5
779
330
769
100
AcDbEntity
  8
3D-GENM
100
AcDbFaceRecord
 10
0.0
 20
0.0
 30
0.0
 70
   128
 71
     3
 72
    -2
 73
   -10
  0
VERTEX
  5
77A
330
769
100
AcDbEntity
  8
3D-GENM
100
AcDbFaceRecord
 10
0.0
 20
0.0
 30
0.0
 70
   128
 71
    -9
 72
    -3
 73
    10
  0
VERTEX
  5
77B
330
769
100
AcDbEntity
  8
3D-GENM
100
AcDbFaceRecord
 10
0.0
 20
0.0
 30
0.0
 70
   128
 71
     5
 72
    -4
 73
    -8
  0
VERTEX
  5
77C
330
769
100
AcDbEntity
  8
3D-GENM
100
AcDbFaceRecord
 10
0.0
 20
0.0
 30
0.0
 70
   128
 71
     6
 72
    -5
 73
    -8
  0
VERTEX
  5
77D
330
769
100
AcDbEntity
  8
3D-GENM
100
AcDbFaceRecord
 10
0.0
 20
0.0
 30
0.0
 70
   128
 71
    -4
 72
     9
 73
    -8
  0
VERTEX
  5
77E
330
769
100
AcDbEntity
  8
3D-GENM
100
AcDbFaceRecord
 10
0.0
 20
0.0
 30
0.0
 70
   128
 71
    -6
 72
     8
 73
     7
  0
VERTEX
  5
77F
330
769
100
AcDbEntity
  8
3D-GENM
100
AcDbFaceRecord
 10
0.0
 20
0.0
 30
0.0
 70
   128
 71
    -3
 72
    -9
 73
     4
  0
SEQEND
  5
780
330
769
100
AcDbEntity
  8
3D-GENM
  0
POLYLINE
  5
781
330
7F
100
AcDbEntity
  8
3D-GENM
100
AcDbPolyFaceMesh
 66
     1
 10
0.0
 20
0.0
 30
0.0
 70
    64
 71
     5
 72
     2
1001
REVIT
1002
{
1070
     4
1000
6208
1002
}
  0
VERTEX
  5
782
330
781
100
AcDbEntity
  8
3D-GENM
100
AcDbVertex
100
AcDbPolyFaceMeshVertex
 10
3.437500119209289
 20
-6.110476255416869
 30
2.000000059604644
 70
   192
  0
VERTEX
  5
783
330
781
100
AcDbEntity
  8
3D-GENM
100
AcDbVertex
100
AcDbPolyFaceMeshVertex
 10
3.437500119209289
 20
-6.110476255416869
 30
2.344170749187469
 70
   192
  0
VERTEX
  5
784
330
781
100
AcDbEntity
  8
3D-GENM
100
AcDbVertex
100
AcDbPolyFaceMeshVertex
 10
0.0000000000005402
 20
-6.110476255416869
 30
2.562500059604644
 70
   192
  0
VERTEX
  5
785
330
781
100
AcDbEntity
  8
3D-GENM
100
AcDbVertex
100
AcDbPolyFaceMeshVertex
 10
-3.437500119209289
 20
-6.110476255416869
 30
2.344170749187469
 70
   192
  0
VERTEX
  5
786
330
781
100
AcDbEntity
  8
3D-GENM
100
AcDbVertex
100
AcDbPolyFaceMeshVertex
 10
-3.437500119209289
 20
-6.110476255416869
 30
2.000000059604644
 70
   192
  0
VERTEX
  5
787
330
781
100
AcDbEntity
  8
3D-GENM
100
AcDbFaceRecord
 10
0.0
 20
0.0
 30
0.0
 70
   128
 71
     5
 72
     4
 73
    -3
 74
     1
  0
VERTEX
  5
788
330
781
100
AcDbEntity
  8
3D-GENM
100
AcDbFaceRecord
 10
0.0
 20
0.0
 30
0.0
 70
   128
 71
     2
 72
    -1
 73
     3
  0
SEQEND
  5
789
330
781
100
AcDbEntity
  8
3D-GENM
  0
POLYLINE
  5
78A
330
7F
100
AcDbEntity
  8
3D-GENM
100
AcDbPolyFaceMesh
 66
     1
 10
0.0
 20
0.0
 30
0.0
 70
    64
 71
    12
 72
    10
1001
REVIT
1002
{
1070
     4
1000
6208
1002
}
  0
VERTEX
  5
78B
330
78A
100
AcDbEntity
  8
3D-GENM
100
AcDbVertex
100
AcDbPolyFaceMeshVertex
 10
3.566909551620482
 20
-6.093438863754271
 30
2.000000059604644
 70
   192
  0
VERTEX
  5
78C
330
78A
100
AcDbEntity
  8
3D-GENM
100
AcDbVertex
100
AcDbPolyFaceMeshVertex
 10
3.68749988079071
 20
-6.043488979339598
 30
2.000000059604644
 70
   192
  0
VERTEX
  5
78D
330
78A
100
AcDbEntity
  8
3D-GENM
100
AcDbVertex
100
AcDbPolyFaceMeshVertex
 10
3.791053533554076
 20
-5.964029431343077
 30
2.000000059604644
 70
   192
  0
VERTEX
  5
78E
330
78A
100
AcDbEntity
  8
3D-GENM
100
AcDbVertex
100
AcDbPolyFaceMeshVertex
 10
3.870512723922729
 20
-5.860476136207579
 30
2.000000059604644
 70
   192
  0
VERTEX
  5
78F
330
78A
100
AcDbEntity
  8
3D-GENM
100
AcDbVertex
100
AcDbPolyFaceMeshVertex
 10
3.92046296596527
 20
-5.739885807037352
 30
2.000000059604644
 70
   192
  0
VERTEX
  5
790
330
78A
100
AcDbEntity
  8
3D-GENM
100
AcDbVertex
100
AcDbPolyFaceMeshVertex
 10
3.937499999999999
 20
-5.61047601699829
 30
2.000000059604644
 70
   192
  0
VERTEX
  5
791
330
78A
100
AcDbEntity
  8
3D-GENM
100
AcDbVertex
100
AcDbPolyFaceMeshVertex
 10
3.937499999999999
 20
-5.61047601699829
 30
2.275674462318419
 70
   192
  0
VERTEX
  5
792
330
78A
100
AcDbEntity
  8
3D-GENM
100
AcDbVertex
100
AcDbPolyFaceMeshVertex
 10
3.899248838424682
 20
-5.802278280258177
 30
2.281249344348907
 70
   192
  0
VERTEX
  5
793
330
78A
100
AcDbEntity
  8
3D-GENM
100
AcDbVertex
100
AcDbPolyFaceMeshVertex
 10
3.790680527687072
 20
-5.964402079582213
 30
2.296769499778747
 70
   192
  0
VERTEX
  5
794
330
78A
100
AcDbEntity
  8
3D-GENM
100
AcDbVertex
100
AcDbPolyFaceMeshVertex
 10
3.6287122964859
 20
-6.07246971130371
 30
2.319092988967895
 70
   192
  0
VERTEX
  5
795
330
78A
100
AcDbEntity
  8
3D-GENM
100
AcDbVertex
100
AcDbPolyFaceMeshVertex
 10
3.437500119209289
 20
-6.110476255416869
 30
2.344170749187469
 70
   192
  0
VERTEX
  5
796
330
78A
100
AcDbEntity
  8
3D-GENM
100
AcDbVertex
100
AcDbPolyFaceMeshVertex
 10
3.437500119209289
 20
-6.110476255416869
 30
2.000000059604644
 70
   192
  0
VERTEX
  5
797
330
78A
100
AcDbEntity
  8
3D-GENM
100
AcDbFaceRecord
 10
0.0
 20
0.0
 30
0.0
 70
   128
 71
     1
 72
   -12
 73
   -10
  0
VERTEX
  5
798
330
78A
100
AcDbEntity
  8
3D-GENM
100
AcDbFaceRecord
 10
0.0
 20
0.0
 30
0.0
 70
   128
 71
     2
 72
    -1
 73
   -10
  0
VERTEX
  5
799
330
78A
100
AcDbEntity
  8
3D-GENM
100
AcDbFaceRecord
 10
0.0
 20
0.0
 30
0.0
 70
   128
 71
    12
 72
    11
 73
   -10
  0
VERTEX
  5
79A
330
78A
100
AcDbEntity
  8
3D-GENM
100
AcDbFaceRecord
 10
0.0
 20
0.0
 30
0.0
 70
   128
 71
    -2
 72
    10
 73
    -9
  0
VERTEX
  5
79B
330
78A
100
AcDbEntity
  8
3D-GENM
100
AcDbFaceRecord
 10
0.0
 20
0.0
 30
0.0
 70
   128
 71
    -9
 72
     3
 73
    -2
  0
VERTEX
  5
79C
330
78A
100
AcDbEntity
  8
3D-GENM
100
AcDbFaceRecord
 10
0.0
 20
0.0
 30
0.0
 70
   128
 71
     4
 72
    -3
 73
    -8
  0
VERTEX
  5
79D
330
78A
100
AcDbEntity
  8
3D-GENM
100
AcDbFaceRecord
 10
0.0
 20
0.0
 30
0.0
 70
   128
 71
     5
 72
    -4
 73
    -8
  0
VERTEX
  5
79E
330
78A
100
AcDbEntity
  8
3D-GENM
100
AcDbFaceRecord
 10
0.0
 20
0.0
 30
0.0
 70
   128
 71
     8
 72
    -7
 73
    -5
  0
VERTEX
  5
79F
330
78A
100
AcDbEntity
  8
3D-GENM
100
AcDbFaceRecord
 10
0.0
 20
0.0
 30
0.0
 70
   128
 71
     6
 72
    -5
 73
     7
  0
VERTEX
  5
7A0
330
78A
100
AcDbEntity
  8
3D-GENM
100
AcDbFaceRecord
 10
0.0
 20
0.0
 30
0.0
 70
   128
 71
     9
 72
    -8
 73
    -3
  0
SEQEND
  5
7A1
330
78A
100
AcDbEntity
  8
3D-GENM
  0
POLYLINE
  5
7A2
330
7F
100
AcDbEntity
  8
3D-GENM
100
AcDbPolyFaceMesh
 66
     1
 10
0.0
 20
0.0
 30
0.0
 70
    64
 71
     4
 72
     1
1001
REVIT
1002
{
1070
     4
1000
6208
1002
}
  0
VERTEX
  5
7A3
330
7A2
100
AcDbEntity
  8
3D-GENM
100
AcDbVertex
100
AcDbPolyFaceMeshVertex
 10
3.937499999999999
 20
0.3895238935947418
 30
2.000000059604644
 70
   192
  0
VERTEX
  5
7A4
330
7A2
100
AcDbEntity
  8
3D-GENM
100
AcDbVertex
100
AcDbPolyFaceMeshVertex
 10
3.937499999999999
 20
0.3895238935947418
 30
2.275674462318419
 70
   192
  0
VERTEX
  5
7A5
330
7A2
100
AcDbEntity
  8
3D-GENM
100
AcDbVertex
100
AcDbPolyFaceMeshVertex
 10
3.937499999999999
 20
-5.61047601699829
 30
2.275674462318419
 70
   192
  0
VERTEX
  5
7A6
330
7A2
100
AcDbEntity
  8
3D-GENM
100
AcDbVertex
100
AcDbPolyFaceMeshVertex
 10
3.937499999999999
 20
-5.61047601699829
 30
2.000000059604644
 70
   192
  0
VERTEX
  5
7A7
330
7A2
100
AcDbEntity
  8
3D-GENM
100
AcDbFaceRecord
 10
0.0
 20
0.0
 30
0.0
 70
   128
 71
     3
 72
     2
 73
     1
 74
     4
  0
SEQEND
  5
7A8
330
7A2
100
AcDbEntity
  8
3D-GENM
  0
POLYLINE
  5
7A9
330
7F
100
AcDbEntity
  8
3D-GENM
100
AcDbPolyFaceMesh
 66
     1
 10
0.0
 20
0.0
 30
0.0
 70
    64
 71
    12
 72
    10
1001
REVIT
1002
{
1070
     4
1000
6208
1002
}
  0
VERTEX
  5
7AA
330
7A9
100
AcDbEntity
  8
3D-GENM
100
AcDbVertex
100
AcDbPolyFaceMeshVertex
 10
3.6287122964859
 20
0.8515171408653257
 30
2.319092988967895
 70
   192
  0
VERTEX
  5
7AB
330
7A9
100
AcDbEntity
  8
3D-GENM
100
AcDbVertex
100
AcDbPolyFaceMeshVertex
 10
3.790680527687072
 20
0.7434498667716979
 30
2.296769499778747
 70
   192
  0
VERTEX
  5
7AC
330
7A9
100
AcDbEntity
  8
3D-GENM
100
AcDbVertex
100
AcDbPolyFaceMeshVertex
 10
3.899248838424682
 20
0.5813260674476623
 30
2.281249344348907
 70
   192
  0
VERTEX
  5
7AD
330
7A9
100
AcDbEntity
  8
3D-GENM
100
AcDbVertex
100
AcDbPolyFaceMeshVertex
 10
3.937499999999999
 20
0.3895238935947418
 30
2.275674462318419
 70
   192
  0
VERTEX
  5
7AE
330
7A9
100
AcDbEntity
  8
3D-GENM
100
AcDbVertex
100
AcDbPolyFaceMeshVertex
 10
3.937499999999999
 20
0.3895238935947418
 30
2.000000059604644
 70
   192
  0
VERTEX
  5
7AF
330
7A9
100
AcDbEntity
  8
3D-GENM
100
AcDbVertex
100
AcDbPolyFaceMeshVertex
 10
3.92046296596527
 20
0.5189334154129028
 30
2.000000059604644
 70
   192
  0
VERTEX
  5
7B0
330
7A9
100
AcDbEntity
  8
3D-GENM
100
AcDbVertex
100
AcDbPolyFaceMeshVertex
 10
3.870512723922729
 20
0.6395238786935806
 30
2.000000059604644
 70
   192
  0
VERTEX
  5
7B1
330
7A9
100
AcDbEntity
  8
3D-GENM
100
AcDbVertex
100
AcDbPolyFaceMeshVertex
 10
3.791053533554076
 20
0.7430772632360458
 30
2.000000059604644
 70
   192
  0
VERTEX
  5
7B2
330
7A9
100
AcDbEntity
  8
3D-GENM
100
AcDbVertex
100
AcDbPolyFaceMeshVertex
 10
3.68749988079071
 20
0.8225365877151487
 30
2.000000059604644
 70
   192
  0
VERTEX
  5
7B3
330
7A9
100
AcDbEntity
  8
3D-GENM
100
AcDbVertex
100
AcDbPolyFaceMeshVertex
 10
3.566909551620482
 20
0.8724868297576902
 30
2.000000059604644
 70
   192
  0
VERTEX
  5
7B4
330
7A9
100
AcDbEntity
  8
3D-GENM
100
AcDbVertex
100
AcDbPolyFaceMeshVertex
 10
3.437500119209289
 20
0.8895238637924192
 30
2.000000059604644
 70
   192
  0
VERTEX
  5
7B5
330
7A9
100
AcDbEntity
  8
3D-GENM
100
AcDbVertex
100
AcDbPolyFaceMeshVertex
 10
3.437500119209289
 20
0.8895238637924192
 30
2.344170749187469
 70
   192
  0
VERTEX
  5
7B6
330
7A9
100
AcDbEntity
  8
3D-GENM
100
AcDbFaceRecord
 10
0.0
 20
0.0
 30
0.0
 70
   128
 71
     6
 72
     5
 73
    -4
  0
VERTEX
  5
7B7
330
7A9
100
AcDbEntity
  8
3D-GENM
100
AcDbFaceRecord
 10
0.0
 20
0.0
 30
0.0
 70
   128
 71
     7
 72
    -6
 73
    -3
  0
VERTEX
  5
7B8
330
7A9
100
AcDbEntity
  8
3D-GENM
100
AcDbFaceRecord
 10
0.0
 20
0.0
 30
0.0
 70
   128
 71
     4
 72
    -3
 73
    -6
  0
VERTEX
  5
7B9
330
7A9
100
AcDbEntity
  8
3D-GENM
100
AcDbFaceRecord
 10
0.0
 20
0.0
 30
0.0
 70
   128
 71
     8
 72
    -7
 73
    -3
  0
VERTEX
  5
7BA
330
7A9
100
AcDbEntity
  8
3D-GENM
100
AcDbFaceRecord
 10
0.0
 20
0.0
 30
0.0
 70
   128
 71
    -2
 72
    -8
 73
     3
  0
VERTEX
  5
7BB
330
7A9
100
AcDbEntity
  8
3D-GENM
100
AcDbFaceRecord
 10
0.0
 20
0.0
 30
0.0
 70
   128
 71
    10
 72
    -9
 73
    -1
  0
VERTEX
  5
7BC
330
7A9
100
AcDbEntity
  8
3D-GENM
100
AcDbFaceRecord
 10
0.0
 20
0.0
 30
0.0
 70
   128
 71
    11
 72
   -10
 73
    -1
  0
VERTEX
  5
7BD
330
7A9
100
AcDbEntity
  8
3D-GENM
100
AcDbFaceRecord
 10
0.0
 20
0.0
 30
0.0
 70
   128
 71
    -9
 72
     2
 73
    -1
  0
VERTEX
  5
7BE
330
7A9
100
AcDbEntity
  8
3D-GENM
100
AcDbFaceRecord
 10
0.0
 20
0.0
 30
0.0
 70
   128
 71
   -11
 72
     1
 73
    12
  0
VERTEX
  5
7BF
330
7A9
100
AcDbEntity
  8
3D-GENM
100
AcDbFaceRecord
 10
0.0
 20
0.0
 30
0.0
 70
   128
 71
    -8
 72
    -2
 73
     9
  0
SEQEND
  5
7C0
330
7A9
100
AcDbEntity
  8
3D-GENM
  0
ENDBLK
  5
7C2
330
7F
100
AcDbEntity
  8
0
100
AcDbBlockEnd
  0
ENDSEC
  0
SECTION
  2
ENTITIES
  0
INSERT
  5
7C3
330
75
100
AcDbEntity
  8
3D-GENM
100
AcDbBlockReference
  2
Family1 - Family1_1-4698-3D Presentation
 10
0.0
 20
37.92122865232007
 30
2.999999999999999
210
0.0
220
1.0
230
0.0
1001
REVIT
1002
{
1070
     1
1000
5731
1002
}
1002
{
1070
     5
1000
4698
1002
}
1002
{
1070
     2
1000
-2000151
1002
}
  0
ENDSEC
  0
SECTION
  2
OBJECTS
  0
DICTIONARY
  5
C
330
0
100
AcDbDictionary
281
     1
  3
ACAD_COLOR
350
6B
  3
ACAD_GROUP
350
D
  3
ACAD_LAYOUT
350
6A
  3
ACAD_MATERIAL
350
10
  3
ACAD_MLEADERSTYLE
350
6E
  3
ACAD_MLINESTYLE
350
67
  3
ACAD_PLOTSETTINGS
350
69
  3
ACAD_PLOTSTYLENAME
350
E
  3
ACAD_SCALELIST
350
3A
  3
ACAD_TABLESTYLE
350
6C
  3
ACAD_VISUALSTYLE
350
29
  3
ACDB_RECOMPOSE_DATA
350
7D1
  3
AcDbVariableDictionary
350
7CB
  3
REVIT_DICTIONARY
350
7C8
  0
DICTIONARY
  5
6B
102
{ACAD_REACTORS
330
C
102
}
330
C
100
AcDbDictionary
281
     1
  0
DICTIONARY
  5
D
102
{ACAD_REACTORS
330
C
102
}
330
C
100
AcDbDictionary
281
     1
  0
DICTIONARY
  5
6A
102
{ACAD_REACTORS
330
C
102
}
330
C
100
AcDbDictionary
281
     1
  3
Layout1
350
74
  3
Layout2
350
7C
  3
Model
350
78
  0
DICTIONARY
  5
10
102
{ACAD_REACTORS
330
C
102
}
330
C
100
AcDbDictionary
281
     1
  3
ByBlock
350
19
  3
ByLayer
350
11
  3
Global
350
21
  3
RevitMaterialDefinition6208
350
7C5
  0
DICTIONARY
  5
6E
102
{ACAD_REACTORS
330
C
102
}
330
C
100
AcDbDictionary
281
     1
  3
Standard
350
6F
  0
DICTIONARY
  5
67
102
{ACAD_REACTORS
330
C
102
}
330
C
100
AcDbDictionary
281
     1
  3
Standard
350
68
  0
DICTIONARY
  5
69
102
{ACAD_REACTORS
330
C
102
}
330
C
100
AcDbDictionary
281
     1
  0
ACDBDICTIONARYWDFLT
  5
E
102
{ACAD_REACTORS
330
C
102
}
330
C
100
AcDbDictionary
281
     1
  3
Normal
350
F
100
AcDbDictionaryWithDefault
340
F
  0
DICTIONARY
  5
3A
102
{ACAD_REACTORS
330
C
102
}
330
C
100
AcDbDictionary
281
     1
  3
A0
350
3B
  3
A1
350
3C
  3
A2
350
3D
  3
A3
350
3E
  3
A4
350
3F
  3
A5
350
40
  3
A6
350
41
  3
A7
350
42
  3
A8
350
43
  3
A9
350
44
  3
B0
350
45
  3
B1
350
46
  3
B2
350
47
  3
B3
350
48
  3
B4
350
49
  3
B5
350
4A
  3
B6
350
4B
  3
B7
350
4C
  3
B8
350
4D
  3
B9
350
4E
  3
C0
350
4F
  3
C1
350
50
  3
C2
350
51
  3
C3
350
52
  3
C4
350
53
  3
C5
350
54
  3
C6
350
55
  3
C7
350
56
  3
C8
350
57
  3
C9
350
58
  3
D0
350
59
  3
D1
350
5A
  3
D2
350
5B
  0
DICTIONARY
  5
6C
102
{ACAD_REACTORS
330
C
102
}
330
C
100
AcDbDictionary
281
     1
  3
Standard
350
6D
  0
DICTIONARY
  5
29
102
{ACAD_REACTORS
330
C
102
}
330
C
100
AcDbDictionary
281
     1
  3
2dWireframe
350
2F
  3
3D Hidden
350
31
  3
3dWireframe
350
30
  3
Basic
350
2E
  3
Brighten
350
35
  3
ColorChange
350
39
  3
Conceptual
350
32
  3
Dim
350
34
  3
Facepattern
350
38
  3
Flat
350
2A
  3
FlatWithEdges
350
2B
  3
Gouraud
350
2C
  3
GouraudWithEdges
350
2D
  3
Linepattern
350
37
  3
Realistic
350
33
  3
Thicken
350
36
  0
XRECORD
  5
7D1
102
{ACAD_REACTORS
330
C
102
}
330
C
100
AcDbXrecord
280
     1
 90
        1
330
6D
  0
DICTIONARY
  5
7CB
102
{ACAD_REACTORS
330
C
102
}
330
C
100
AcDbDictionary
281
     1
  3
CANNOSCALE
350
7CE
  3
CMLEADERSTYLE
350
7CD
  3
CTABLESTYLE
350
7CC
  0
DICTIONARY
  5
7C8
102
{ACAD_REACTORS
330
C
102
}
330
C
100
AcDbDictionary
281
     1
  3
REVIT_CATEGORY_MAPPING
350
7CA
  3
REVIT_TYPE_MAPPING
350
7C9
  0
LAYOUT
  5
74
102
{ACAD_REACTORS
330
6A
102
}
330
6A
100
AcDbPlotSettings
  1

  2

  4

  6

 40
0.0
 41
0.0
 42
0.0
 43
0.0
 44
0.0
 45
0.0
 46
0.0
 47
0.0
 48
0.0
 49
0.0
140
0.0
141
0.0
142
1.0
143
1.0
 70
   688
 72
     0
 73
     0
 74
     5
  7

 75
    16
147
1.0
 76
     0
 77
     2
 78
   300
148
0.0
149
0.0
100
AcDbLayout
  1
Layout1
 70
     1
 71
     1
 10
0.0
 20
0.0
 11
12.0
 21
9.0
 12
0.0
 22
0.0
 32
0.0
 14
0.0
 24
0.0
 34
0.0
 15
0.0
 25
0.0
 35
0.0
146
0.0
 13
0.0
 23
0.0
 33
0.0
 16
1.0
 26
0.0
 36
0.0
 17
0.0
 27
1.0
 37
0.0
 76
     0
330
71
  0
LAYOUT
  5
7C
102
{ACAD_REACTORS
330
6A
102
}
330
6A
100
AcDbPlotSettings
  1

  2

  4

  6

 40
0.0
 41
0.0
 42
0.0
 43
0.0
 44
0.0
 45
0.0
 46
0.0
 47
0.0
 48
0.0
 49
0.0
140
0.0
141
0.0
142
1.0
143
1.0
 70
   688
 72
     0
 73
     0
 74
     5
  7

 75
    16
147
1.0
 76
     0
 77
     2
 78
   300
148
0.0
149
0.0
100
AcDbLayout
  1
Layout2
 70
     1
 71
     2
 10
0.0
 20
0.0
 11
12.0
 21
9.0
 12
0.0
 22
0.0
 32
0.0
 14
0.0
 24
0.0
 34
0.0
 15
0.0
 25
0.0
 35
0.0
146
0.0
 13
0.0
 23
0.0
 33
0.0
 16
1.0
 26
0.0
 36
0.0
 17
0.0
 27
1.0
 37
0.0
 76
     0
330
79
  0
LAYOUT
  5
78
102
{ACAD_REACTORS
330
6A
102
}
330
6A
100
AcDbPlotSettings
  1

  2

  4

  6

 40
0.0
 41
0.0
 42
0.0
 43
0.0
 44
0.0
 45
0.0
 46
0.0
 47
0.0
 48
0.0
 49
0.0
140
0.0
141
0.0
142
1.0
143
1.0
 70
  1712
 72
     0
 73
     0
 74
     0
  7

 75
     0
147
1.0
 76
     0
 77
     2
 78
   300
148
0.0
149
0.0
100
AcDbLayout
  1
Model
 70
     1
 71
     0
 10
0.0
 20
0.0
 11
12.0
 21
9.0
 12
0.0
 22
0.0
 32
0.0
 14
0.0
 24
0.0
 34
0.0
 15
0.0
 25
0.0
 35
0.0
146
0.0
 13
0.0
 23
0.0
 33
0.0
 16
1.0
 26
0.0
 36
0.0
 17
0.0
 27
1.0
 37
0.0
 76
     0
330
75
  0
MATERIAL
  5
19
102
{ACAD_XDICTIONARY
360
1A
102
}
102
{ACAD_REACTORS
330
10
102
}
330
10
100
AcDbMaterial
  1
ByBlock
 72
     0
 43
0.0208333333333333
 43
0.0
 43
0.0
 43
0.0
 43
0.0
 43
0.0208333333333333
 43
0.0
 43
0.0
 43
0.0
 43
0.0
 43
1.0
 43
0.0
 43
0.0
 43
0.0
 43
0.0
 43
1.0
 77
     0
 47
0.0208333333333333
 47
0.0
 47
0.0
 47
0.0
 47
0.0
 47
0.0208333333333333
 47
0.0
 47
0.0
 47
0.0
 47
0.0
 47
1.0
 47
0.0
 47
0.0
 47
0.0
 47
0.0
 47
1.0
171
     0
 49
0.0208333333333333
 49
0.0
 49
0.0
 49
0.0
 49
0.0
 49
0.0208333333333333
 49
0.0
 49
0.0
 49
0.0
 49
0.0
 49
1.0
 49
0.0
 49
0.0
 49
0.0
 49
0.0
 49
1.0
175
     0
142
0.0208333333333333
142
0.0
142
0.0
142
0.0
142
0.0
142
0.0208333333333333
142
0.0
142
0.0
142
0.0
142
0.0
142
1.0
142
0.0
142
0.0
142
0.0
142
0.0
142
1.0
179
     0
144
0.0208333333333333
144
0.0
144
0.0
144
0.0
144
0.0
144
0.0208333333333333
144
0.0
144
0.0
144
0.0
144
0.0
144
1.0
144
0.0
144
0.0
144
0.0
144
0.0
144
1.0
147
0.0208333333333333
147
0.0
147
0.0
147
0.0
147
0.0
147
0.0208333333333333
147
0.0
147
0.0
147
0.0
147
0.0
147
1.0
147
0.0
147
0.0
147
0.0
147
0.0
147
1.0
  0
MATERIAL
  5
11
102
{ACAD_XDICTIONARY
360
12
102
}
102
{ACAD_REACTORS
330
10
102
}
330
10
100
AcDbMaterial
  1
ByLayer
 72
     0
 43
0.0208333333333333
 43
0.0
 43
0.0
 43
0.0
 43
0.0
 43
0.0208333333333333
 43
0.0
 43
0.0
 43
0.0
 43
0.0
 43
1.0
 43
0.0
 43
0.0
 43
0.0
 43
0.0
 43
1.0
 77
     0
 47
0.0208333333333333
 47
0.0
 47
0.0
 47
0.0
 47
0.0
 47
0.0208333333333333
 47
0.0
 47
0.0
 47
0.0
 47
0.0
 47
1.0
 47
0.0
 47
0.0
 47
0.0
 47
0.0
 47
1.0
171
     0
 49
0.0208333333333333
 49
0.0
 49
0.0
 49
0.0
 49
0.0
 49
0.0208333333333333
 49
0.0
 49
0.0
 49
0.0
 49
0.0
 49
1.0
 49
0.0
 49
0.0
 49
0.0
 49
0.0
 49
1.0
175
     0
142
0.0208333333333333
142
0.0
142
0.0
142
0.0
142
0.0
142
0.0208333333333333
142
0.0
142
0.0
142
0.0
142
0.0
142
1.0
142
0.0
142
0.0
142
0.0
142
0.0
142
1.0
179
     0
144
0.0208333333333333
144
0.0
144
0.0
144
0.0
144
0.0
144
0.0208333333333333
144
0.0
144
0.0
144
0.0
144
0.0
144
1.0
144
0.0
144
0.0
144
0.0
144
0.0
144
1.0
147
0.0208333333333333
147
0.0
147
0.0
147
0.0
147
0.0
147
0.0208333333333333
147
0.0
147
0.0
147
0.0
147
0.0
147
1.0
147
0.0
147
0.0
147
0.0
147
0.0
147
1.0
  0
MATERIAL
  5
21
102
{ACAD_XDICTIONARY
360
22
102
}
102
{ACAD_REACTORS
330
10
102
}
330
10
100
AcDbMaterial
  1
Global
 72
     0
 43
0.0208333333333333
 43
0.0
 43
0.0
 43
0.0
 43
0.0
 43
0.0208333333333333
 43
0.0
 43
0.0
 43
0.0
 43
0.0
 43
1.0
 43
0.0
 43
0.0
 43
0.0
 43
0.0
 43
1.0
 77
     0
 47
0.0208333333333333
 47
0.0
 47
0.0
 47
0.0
 47
0.0
 47
0.0208333333333333
 47
0.0
 47
0.0
 47
0.0
 47
0.0
 47
1.0
 47
0.0
 47
0.0
 47
0.0
 47
0.0
 47
1.0
171
     0
 49
0.0208333333333333
 49
0.0
 49
0.0
 49
0.0
 49
0.0
 49
0.0208333333333333
 49
0.0
 49
0.0
 49
0.0
 49
0.0
 49
1.0
 49
0.0
 49
0.0
 49
0.0
 49
0.0
 49
1.0
175
     0
142
0.0208333333333333
142
0.0
142
0.0
142
0.0
142
0.0
142
0.0208333333333333
142
0.0
142
0.0
142
0.0
142
0.0
142
1.0
142
0.0
142
0.0
142
0.0
142
0.0
142
1.0
179
     0
144
0.0208333333333333
144
0.0
144
0.0
144
0.0
144
0.0
144
0.0208333333333333
144
0.0
144
0.0
144
0.0
144
0.0
144
1.0
144
0.0
144
0.0
144
0.0
144
0.0
144
1.0
147
0.0208333333333333
147
0.0
147
0.0
147
0.0
147
0.0
147
0.0208333333333333
147
0.0
147
0.0
147
0.0
147
0.0
147
1.0
147
0.0
147
0.0
147
0.0
147
0.0
147
1.0
  0
MATERIAL
  5
7C5
102
{ACAD_XDICTIONARY
360
7C6
102
}
102
{ACAD_REACTORS
330
10
102
}
330
10
100
AcDbMaterial
  1
RevitMaterialDefinition6208
 70
     1
 90
-1027753031
 71
     1
 91
-1027753031
  3
C:\Users\Andy\AppData\Local\Temp
 73
     1
 76
     1
 45
0.5
 77
     0
175
     0
145
0.0
  0
MLEADERSTYLE
  5
6F
102
{ACAD_REACTORS
330
6E
102
}
330
6E
100
AcDbMLeaderStyle
170
     2
171
     1
172
     0
 90
        2
 40
0.0
 41
0.0
173
     1
 91
-1056964608
340
63
 92
       -2
290
     1
 42
0.09
291
     1
 43
0.36
  3
Standard
 44
0.18
300

342
5D
174
     1
178
     6
175
     1
176
     0
 93
-1056964608
 45
0.18
292
     0
297
     0
 46
0.18
 94
-1056964608
 47
1.0
 49
1.0
140
1.0
293
     1
141
0.0
294
     1
177
     0
142
1.0
295
     1
296
     0
143
0.125
1001
ACAD_MLEADERVER
1070
     2
  0
MLINESTYLE
  5
68
102
{ACAD_REACTORS
330
67
102
}
330
67
100
AcDbMlineStyle
  2
STANDARD
 70
     0
  3

 62
   256
 51
90.0
 52
90.0
 71
     2
 49
0.5
 62
   256
  6
BYLAYER
 49
-0.5
 62
   256
  6
BYLAYER
  0
ACDBPLACEHOLDER
  5
F
102
{ACAD_REACTORS
330
E
102
}
330
E
  0
SCALE
  5
3B
102
{ACAD_REACTORS
330
3A
102
}
330
3A
100
AcDbScale
 70
     0
300
1:1
140
1.0
141
1.0
290
     1
  0
SCALE
  5
3C
102
{ACAD_REACTORS
330
3A
102
}
330
3A
100
AcDbScale
 70
     0
300
1:2
140
1.0
141
2.0
290
     0
  0
SCALE
  5
3D
102
{ACAD_REACTORS
330
3A
102
}
330
3A
100
AcDbScale
 70
     0
300
1:4
140
1.0
141
4.0
290
     0
  0
SCALE
  5
3E
102
{ACAD_REACTORS
330
3A
102
}
330
3A
100
AcDbScale
 70
     0
300
1:5
140
1.0
141
5.0
290
     0
  0
SCALE
  5
3F
102
{ACAD_REACTORS
330
3A
102
}
330
3A
100
AcDbScale
 70
     0
300
1:8
140
1.0
141
8.0
290
     0
  0
SCALE
  5
40
102
{ACAD_REACTORS
330
3A
102
}
330
3A
100
AcDbScale
 70
     0
300
1:10
140
1.0
141
10.0
290
     0
  0
SCALE
  5
41
102
{ACAD_REACTORS
330
3A
102
}
330
3A
100
AcDbScale
 70
     0
300
1:16
140
1.0
141
16.0
290
     0
  0
SCALE
  5
42
102
{ACAD_REACTORS
330
3A
102
}
330
3A
100
AcDbScale
 70
     0
300
1:20
140
1.0
141
20.0
290
     0
  0
SCALE
  5
43
102
{ACAD_REACTORS
330
3A
102
}
330
3A
100
AcDbScale
 70
     0
300
1:30
140
1.0
141
30.0
290
     0
  0
SCALE
  5
44
102
{ACAD_REACTORS
330
3A
102
}
330
3A
100
AcDbScale
 70
     0
300
1:40
140
1.0
141
40.0
290
     0
  0
SCALE
  5
45
102
{ACAD_REACTORS
330
3A
102
}
330
3A
100
AcDbScale
 70
     0
300
1:50
140
1.0
141
50.0
290
     0
  0
SCALE
  5
46
102
{ACAD_REACTORS
330
3A
102
}
330
3A
100
AcDbScale
 70
     0
300
1:100
140
1.0
141
100.0
290
     0
  0
SCALE
  5
47
102
{ACAD_REACTORS
330
3A
102
}
330
3A
100
AcDbScale
 70
     0
300
2:1
140
2.0
141
1.0
290
     0
  0
SCALE
  5
48
102
{ACAD_REACTORS
330
3A
102
}
330
3A
100
AcDbScale
 70
     0
300
4:1
140
4.0
141
1.0
290
     0
  0
SCALE
  5
49
102
{ACAD_REACTORS
330
3A
102
}
330
3A
100
AcDbScale
 70
     0
300
8:1
140
8.0
141
1.0
290
     0
  0
SCALE
  5
4A
102
{ACAD_REACTORS
330
3A
102
}
330
3A
100
AcDbScale
 70
     0
300
10:1
140
10.0
141
1.0
290
     0
  0
SCALE
  5
4B
102
{ACAD_REACTORS
330
3A
102
}
330
3A
100
AcDbScale
 70
     0
300
100:1
140
100.0
141
1.0
290
     0
  0
SCALE
  5
4C
102
{ACAD_REACTORS
330
3A
102
}
330
3A
100
AcDbScale
 70
     0
300
1/128" = 1'-0"
140
0.0078125
141
12.0
290
     0
  0
SCALE
  5
4D
102
{ACAD_REACTORS
330
3A
102
}
330
3A
100
AcDbScale
 70
     0
300
1/64" = 1'-0"
140
0.015625
141
12.0
290
     0
  0
SCALE
  5
4E
102
{ACAD_REACTORS
330
3A
102
}
330
3A
100
AcDbScale
 70
     0
300
1/32" = 1'-0"
140
0.03125
141
12.0
290
     0
  0
SCALE
  5
4F
102
{ACAD_REACTORS
330
3A
102
}
330
3A
100
AcDbScale
 70
     0
300
1/16" = 1'-0"
140
0.0625
141
12.0
290
     0
  0
SCALE
  5
50
102
{ACAD_REACTORS
330
3A
102
}
330
3A
100
AcDbScale
 70
     0
300
3/32" = 1'-0"
140
0.09375
141
12.0
290
     0
  0
SCALE
  5
51
102
{ACAD_REACTORS
330
3A
102
}
330
3A
100
AcDbScale
 70
     0
300
1/8" = 1'-0"
140
0.125
141
12.0
290
     0
  0
SCALE
  5
52
102
{ACAD_REACTORS
330
3A
102
}
330
3A
100
AcDbScale
 70
     0
300
3/16" = 1'-0"
140
0.1875
141
12.0
290
     0
  0
SCALE
  5
53
102
{ACAD_REACTORS
330
3A
102
}
330
3A
100
AcDbScale
 70
     0
300
1/4" = 1'-0"
140
0.25
141
12.0
290
     0
  0
SCALE
  5
54
102
{ACAD_REACTORS
330
3A
102
}
330
3A
100
AcDbScale
 70
     0
300
3/8" = 1'-0"
140
0.375
141
12.0
290
     0
  0
SCALE
  5
55
102
{ACAD_REACTORS
330
3A
102
}
330
3A
100
AcDbScale
 70
     0
300
1/2" = 1'-0"
140
0.5
141
12.0
290
     0
  0
SCALE
  5
56
102
{ACAD_REACTORS
330
3A
102
}
330
3A
100
AcDbScale
 70
     0
300
3/4" = 1'-0"
140
0.75
141
12.0
290
     0
  0
SCALE
  5
57
102
{ACAD_REACTORS
330
3A
102
}
330
3A
100
AcDbScale
 70
     0
300
1" = 1'-0"
140
1.0
141
12.0
290
     0
  0
SCALE
  5
58
102
{ACAD_REACTORS
330
3A
102
}
330
3A
100
AcDbScale
 70
     0
300
1-1/2" = 1'-0"
140
1.5
141
12.0
290
     0
  0
SCALE
  5
59
102
{ACAD_REACTORS
330
3A
102
}
330
3A
100
AcDbScale
 70
     0
300
3" = 1'-0"
140
3.0
141
12.0
290
     0
  0
SCALE
  5
5A
102
{ACAD_REACTORS
330
3A
102
}
330
3A
100
AcDbScale
 70
     0
300
6" = 1'-0"
140
6.0
141
12.0
290
     0
  0
SCALE
  5
5B
102
{ACAD_REACTORS
330
3A
102
}
330
3A
100
AcDbScale
 70
     0
300
1'-0" = 1'-0"
140
12.0
141
12.0
290
     0
  0
TABLESTYLE
  5
6D
102
{ACAD_XDICTIONARY
360
7CF
102
}
102
{ACAD_REACTORS
330
6C
102
}
330
6C
100
AcDbTableStyle
  3
Standard
 70
     0
 71
     0
 40
0.06
 41
0.06
280
     0
281
     0
  7
Standard
140
0.18
170
     2
 62
     0
 63
     7
283
     0
 90
      512
 91
        0
  1

274
    -2
284
     1
 64
     0
275
    -2
285
     1
 65
     0
276
    -2
286
     1
 66
     0
277
    -2
287
     1
 67
     0
278
    -2
288
     1
 68
     0
279
    -2
289
     1
 69
     0
  7
Standard
140
0.25
170
     5
 62
     0
 63
     7
283
     0
 90
      512
 91
        0
  1

274
    -2
284
     1
 64
     0
275
    -2
285
     1
 65
     0
276
    -2
286
     1
 66
     0
277
    -2
287
     1
 67
     0
278
    -2
288
     1
 68
     0
279
    -2
289
     1
 69
     0
  7
Standard
140
0.18
170
     5
 62
     0
 63
     7
283
     0
 90
      512
 91
        0
  1

274
    -2
284
     1
 64
     0
275
    -2
285
     1
 65
     0
276
    -2
286
     1
 66
     0
277
    -2
287
     1
 67
     0
278
    -2
288
     1
 68
     0
279
    -2
289
     1
 69
     0
  0
VISUALSTYLE
  5
2F
102
{ACAD_REACTORS
330
29
102
}
330
29
100
AcDbVisualStyle
  2
2dWireframe
 70
     4
 71
     0
 72
     2
 73
     0
 90
        0
 40
-0.6
 41
-30.0
 62
     5
 63
     7
421
 16777215
 74
     1
 91
        4
 64
     7
 65
   257
 75
     1
175
     1
 42
1.0
 92
        0
 66
   257
 43
1.0
 76
     1
 77
     6
 78
     2
 67
     7
 79
     5
170
     0
171
     0
290
     0
174
     0
 93
        1
 44
0.0
173
     0
291
     0
 45
0.0
  0
VISUALSTYLE
  5
31
102
{ACAD_REACTORS
330
29
102
}
330
29
100
AcDbVisualStyle
  2
3D Hidden
 70
     6
 71
     1
 72
     2
 73
     2
 90
        0
 40
-0.6
 41
-30.0
 62
     5
 63
     7
421
 16777215
 74
     2
 91
        2
 64
     7
 65
   257
 75
     2
175
     1
 42
40.0
 92
        0
 66
   257
 43
1.0
 76
     1
 77
     6
 78
     2
 67
     7
 79
     3
170
     0
171
     0
290
     0
174
     0
 93
        1
 44
0.0
173
     0
291
     0
 45
0.0
  0
VISUALSTYLE
  5
30
102
{ACAD_REACTORS
330
29
102
}
330
29
100
AcDbVisualStyle
  2
3dWireframe
 70
     5
 71
     0
 72
     2
 73
     0
 90
        0
 40
-0.6
 41
-30.0
 62
     5
 63
     7
421
 16777215
 74
     1
 91
        4
 64
     7
 65
   257
 75
     1
175
     1
 42
1.0
 92
        0
 66
   257
 43
1.0
 76
     1
 77
     6
 78
     2
 67
     7
 79
     5
170
     0
171
     0
290
     0
174
     0
 93
        1
 44
0.0
173
     0
291
     0
 45
0.0
  0
VISUALSTYLE
  5
2E
102
{ACAD_REACTORS
330
29
102
}
330
29
100
AcDbVisualStyle
  2
Basic
 70
     7
 71
     1
 72
     0
 73
     1
 90
        0
 40
-0.6
 41
-30.0
 62
     5
 63
     7
421
 16777215
 74
     0
 91
        4
 64
     7
 65
   257
 75
     1
175
     1
 42
1.0
 92
        8
 66
     7
 43
1.0
 76
     1
 77
     6
 78
     2
 67
     7
 79
     5
170
     0
171
     0
290
     0
174
     0
 93
        1
 44
0.0
173
     0
291
     1
 45
0.0
  0
VISUALSTYLE
  5
35
102
{ACAD_REACTORS
330
29
102
}
330
29
100
AcDbVisualStyle
  2
Brighten
 70
    12
 71
     2
 72
     2
 73
     0
 90
        0
 40
-0.6
 41
-30.0
 62
     5
 63
     7
421
 16777215
 74
     1
 91
        4
 64
     7
 65
   257
 75
     1
175
     1
 42
1.0
 92
        8
 66
     7
 43
1.0
 76
     1
 77
     6
 78
     2
 67
     7
 79
     5
170
     0
171
     0
290
     0
174
     0
 93
        1
 44
50.0
173
     0
291
     1
 45
0.0
  0
VISUALSTYLE
  5
39
102
{ACAD_REACTORS
330
29
102
}
330
29
100
AcDbVisualStyle
  2
ColorChange
 70
    16
 71
     2
 72
     2
 73
     3
 90
        0
 40
-0.6
 41
-30.0
 62
     5
 63
     8
421
  8421504
 74
     1
 91
        4
 64
     7
 65
   257
 75
     1
175
     1
 42
1.0
 92
        8
 66
     8
424
  8421504
 43
1.0
 76
     1
 77
     6
 78
     2
 67
     7
 79
     5
170
     0
171
     0
290
     0
174
     0
 93
        1
 44
0.0
173
     0
291
     1
 45
0.0
  0
VISUALSTYLE
  5
32
102
{ACAD_REACTORS
330
29
102
}
330
29
100
AcDbVisualStyle
  2
Conceptual
 70
     9
 71
     3
 72
     2
 73
     0
 90
        0
 40
-0.6
 41
-30.0
 62
     5
 63
     7
421
 16777215
 74
     2
 91
        2
 64
     7
 65
   257
 75
     1
175
     1
 42
40.0
 92
        8
 66
     7
 43
1.0
 76
     1
 77
     6
 78
     2
 67
     7
 79
     3
170
     0
171
     0
290
     0
174
     0
 93
        1
 44
0.0
173
     0
291
     0
 45
0.0
  0
VISUALSTYLE
  5
34
102
{ACAD_REACTORS
330
29
102
}
330
29
100
AcDbVisualStyle
  2
Dim
 70
    11
 71
     2
 72
     2
 73
     0
 90
        0
 40
-0.6
 41
-30.0
 62
     5
 63
     7
421
 16777215
 74
     1
 91
        4
 64
     7
 65
   257
 75
     1
175
     1
 42
1.0
 92
        8
 66
     7
 43
1.0
 76
     1
 77
     6
 78
     2
 67
     7
 79
     5
170
     0
171
     0
290
     0
174
     0
 93
        1
 44
-50.0
173
     0
291
     1
 45
0.0
  0
VISUALSTYLE
  5
38
102
{ACAD_REACTORS
330
29
102
}
330
29
100
AcDbVisualStyle
  2
Facepattern
 70
    15
 71
     2
 72
     2
 73
     0
 90
        0
 40
-0.6
 41
-30.0
 62
     5
 63
     7
421
 16777215
 74
     1
 91
        4
 64
     7
 65
   257
 75
     1
175
     1
 42
1.0
 92
        8
 66
     7
 43
1.0
 76
     1
 77
     6
 78
     2
 67
     7
 79
     5
170
     0
171
     0
290
     0
174
     0
 93
        1
 44
0.0
173
     0
291
     1
 45
0.0
  0
VISUALSTYLE
  5
2A
102
{ACAD_REACTORS
330
29
102
}
330
29
100
AcDbVisualStyle
  2
Flat
 70
     0
 71
     2
 72
     1
 73
     1
 90
        2
 40
-0.6
 41
30.0
 62
     5
 63
     7
421
 16777215
 74
     0
 91
        4
 64
     7
 65
   257
 75
     1
175
     1
 42
1.0
 92
        8
 66
     7
 43
1.0
 76
     1
 77
     6
 78
     2
 67
     7
 79
     5
170
     0
171
     0
290
     0
174
     0
 93
       13
 44
0.0
173
     0
291
     1
 45
0.0
  0
VISUALSTYLE
  5
2B
102
{ACAD_REACTORS
330
29
102
}
330
29
100
AcDbVisualStyle
  2
FlatWithEdges
 70
     1
 71
     2
 72
     1
 73
     1
 90
        2
 40
-0.6
 41
30.0
 62
     5
 63
     7
421
 16777215
 74
     1
 91
        4
 64
     7
 65
   257
 75
     1
175
     1
 42
1.0
 92
        0
 66
   257
 43
1.0
 76
     1
 77
     6
 78
     2
 67
     7
 79
     5
170
     0
171
     0
290
     0
174
     0
 93
       13
 44
0.0
173
     0
291
     1
 45
0.0
  0
VISUALSTYLE
  5
2C
102
{ACAD_REACTORS
330
29
102
}
330
29
100
AcDbVisualStyle
  2
Gouraud
 70
     2
 71
     2
 72
     2
 73
     1
 90
        2
 40
-0.6
 41
30.0
 62
     5
 63
     7
421
 16777215
 74
     0
 91
        4
 64
     7
 65
   257
 75
     1
175
     1
 42
1.0
 92
        0
 66
     7
 43
1.0
 76
     1
 77
     6
 78
     2
 67
     7
 79
     5
170
     0
171
     0
290
     0
174
     0
 93
       13
 44
0.0
173
     0
291
     1
 45
0.0
  0
VISUALSTYLE
  5
2D
102
{ACAD_REACTORS
330
29
102
}
330
29
100
AcDbVisualStyle
  2
GouraudWithEdges
 70
     3
 71
     2
 72
     2
 73
     1
 90
        2
 40
-0.6
 41
30.0
 62
     5
 63
     7
421
 16777215
 74
     1
 91
        4
 64
     7
 65
   257
 75
     1
175
     1
 42
1.0
 92
        0
 66
   257
 43
1.0
 76
     1
 77
     6
 78
     2
 67
     7
 79
     5
170
     0
171
     0
290
     0
174
     0
 93
       13
 44
0.0
173
     0
291
     1
 45
0.0
  0
VISUALSTYLE
  5
37
102
{ACAD_REACTORS
330
29
102
}
330
29
100
AcDbVisualStyle
  2
Linepattern
 70
    14
 71
     2
 72
     2
 73
     0
 90
        0
 40
-0.6
 41
-30.0
 62
     5
 63
     7
421
 16777215
 74
     1
 91
        4
 64
     7
 65
   257
 75
     7
175
     7
 42
1.0
 92
        8
 66
     7
 43
1.0
 76
     1
 77
     6
 78
     2
 67
     7
 79
     5
170
     0
171
     0
290
     0
174
     0
 93
        1
 44
0.0
173
     0
291
     1
 45
0.0
  0
VISUALSTYLE
  5
33
102
{ACAD_REACTORS
330
29
102
}
330
29
100
AcDbVisualStyle
  2
Realistic
 70
     8
 71
     2
 72
     2
 73
     0
 90
        0
 40
-0.6
 41
-30.0
 62
     5
 63
     7
421
 16777215
 74
     1
 91
        0
 64
     7
 65
   257
 75
     1
175
     1
 42
1.0
 92
        8
 66
     8
424
  7895160
 43
1.0
 76
     1
 77
     6
 78
     2
 67
     7
 79
     5
170
     0
171
     0
290
     0
174
     0
 93
       13
 44
0.0
173
     0
291
     0
 45
0.0
  0
VISUALSTYLE
  5
36
102
{ACAD_REACTORS
330
29
102
}
330
29
100
AcDbVisualStyle
  2
Thicken
 70
    13
 71
     2
 72
     2
 73
     0
 90
        0
 40
-0.6
 41
-30.0
 62
     5
 63
     7
421
 16777215
 74
     1
 91
        4
 64
     7
 65
   257
 75
     1
175
     1
 42
1.0
 92
       12
 66
     7
 43
1.0
 76
     1
 77
     6
 78
     2
 67
     7
 79
     5
170
     0
171
     0
290
     0
174
     0
 93
        1
 44
0.0
173
     0
291
     1
 45
0.0
  0
DICTIONARYVAR
  5
7CE
102
{ACAD_REACTORS
330
7CB
102
}
330
7CB
100
DictionaryVariables
280
     0
  1
1:1
  0
DICTIONARYVAR
  5
7CD
102
{ACAD_REACTORS
330
7CB
102
}
330
7CB
100
DictionaryVariables
280
     0
  1
STANDARD
  0
DICTIONARYVAR
  5
7CC
102
{ACAD_REACTORS
330
7CB
102
}
330
7CB
100
DictionaryVariables
280
     0
  1
STANDARD
  0
XRECORD
  5
7CA
102
{ACAD_REACTORS
330
7C8
102
}
330
7C8
100
AcDbXrecord
280
     1
  1
-2000151
  1
Generic Models
  0
XRECORD
  5
7C9
102
{ACAD_REACTORS
330
7C8
102
}
330
7C8
100
AcDbXrecord
280
     1
  1
4698
  1
Family1 : Family1
  0
DICTIONARY
  5
1A
330
19
100
AcDbDictionary
280
     1
281
     1
  3
BUMPTILE
360
1C
  3
DIFFUSETILE
360
1B
  3
OPACITYTILE
360
1F
  3
REFLECTIONTILE
360
1E
  3
REFRACTIONTILE
360
20
  3
SPECULARTILE
360
1D
  0
DICTIONARY
  5
12
330
11
100
AcDbDictionary
280
     1
281
     1
  3
BUMPTILE
360
14
  3
DIFFUSETILE
360
13
  3
OPACITYTILE
360
17
  3
REFLECTIONTILE
360
16
  3
REFRACTIONTILE
360
18
  3
SPECULARTILE
360
15
  0
DICTIONARY
  5
22
330
21
100
AcDbDictionary
280
     1
281
     1
  3
BUMPTILE
360
24
  3
DIFFUSETILE
360
23
  3
OPACITYTILE
360
27
  3
REFLECTIONTILE
360
26
  3
REFRACTIONTILE
360
28
  3
SPECULARTILE
360
25
  0
DICTIONARY
  5
7C6
330
7C5
100
AcDbDictionary
280
     1
281
     1
  3
VIZ XML Material Definition
360
7C7
  0
DICTIONARY
  5
7CF
330
6D
100
AcDbDictionary
280
     1
281
     1
  3
ACAD_ROUNDTRIP_2008_TABLESTYLE_CELLSTYLEMAP
360
7D0
  0
XRECORD
  5
1C
102
{ACAD_REACTORS
330
1A
102
}
330
1A
100
AcDbXrecord
280
     1
270
     1
271
     1
  0
XRECORD
  5
1B
102
{ACAD_REACTORS
330
1A
102
}
330
1A
100
AcDbXrecord
280
     1
270
     1
271
     1
  0
XRECORD
  5
1F
102
{ACAD_REACTORS
330
1A
102
}
330
1A
100
AcDbXrecord
280
     1
270
     1
271
     1
  0
XRECORD
  5
1E
102
{ACAD_REACTORS
330
1A
102
}
330
1A
100
AcDbXrecord
280
     1
270
     1
271
     1
  0
XRECORD
  5
20
102
{ACAD_REACTORS
330
1A
102
}
330
1A
100
AcDbXrecord
280
     1
270
     1
271
     1
  0
XRECORD
  5
1D
102
{ACAD_REACTORS
330
1A
102
}
330
1A
100
AcDbXrecord
280
     1
270
     1
271
     1
  0
XRECORD
  5
14
102
{ACAD_REACTORS
330
12
102
}
330
12
100
AcDbXrecord
280
     1
270
     1
271
     1
  0
XRECORD
  5
13
102
{ACAD_REACTORS
330
12
102
}
330
12
100
AcDbXrecord
280
     1
270
     1
271
     1
  0
XRECORD
  5
17
102
{ACAD_REACTORS
330
12
102
}
330
12
100
AcDbXrecord
280
     1
270
     1
271
     1
  0
XRECORD
  5
16
102
{ACAD_REACTORS
330
12
102
}
330
12
100
AcDbXrecord
280
     1
270
     1
271
     1
  0
XRECORD
  5
18
102
{ACAD_REACTORS
330
12
102
}
330
12
100
AcDbXrecord
280
     1
270
     1
271
     1
  0
XRECORD
  5
15
102
{ACAD_REACTORS
330
12
102
}
330
12
100
AcDbXrecord
280
     1
270
     1
271
     1
  0
XRECORD
  5
24
102
{ACAD_REACTORS
330
22
102
}
330
22
100
AcDbXrecord
280
     1
270
     1
271
     1
  0
XRECORD
  5
23
102
{ACAD_REACTORS
330
22
102
}
330
22
100
AcDbXrecord
280
     1
270
     1
271
     1
  0
XRECORD
  5
27
102
{ACAD_REACTORS
330
22
102
}
330
22
100
AcDbXrecord
280
     1
270
     1
271
     1
  0
XRECORD
  5
26
102
{ACAD_REACTORS
330
22
102
}
330
22
100
AcDbXrecord
280
     1
270
     1
271
     1
  0
XRECORD
  5
28
102
{ACAD_REACTORS
330
22
102
}
330
22
100
AcDbXrecord
280
     1
270
     1
271
     1
  0
XRECORD
  5
25
102
{ACAD_REACTORS
330
22
102
}
330
22
100
AcDbXrecord
280
     1
270
     1
271
     1
  0
XRECORD
  5
7C7
102
{ACAD_REACTORS
330
7C6
102
}
330
7C6
100
AcDbXrecord
280
     1
300
<Material id="RevitMaterialDefinition6208" app="REVIT" Background="0" Backlight="1" Sample="0" Tiling="0">^J<LinearUnits unitType="foot" unitScale="1.0"/>^J<ArchitecturalMaterial name="ASI - Stainless Steel - 93 Satin">^J<ArchTemplateParameters name="ASI - S
300
tainless Steel - 93 Satin" classid_A="2008828122" classid_B="14503598">^J</ArchTemplateParameters>^J<ArchMatParameters>^J<ArchDiffuseColor>^J<RGBf r="0.7412" g="0.7333" b="0.7255"/>^J</ArchDiffuseColor>^J<ArchIndexOfRefraction>1.5000</ArchIndexOfRefraction>^J<Ar
300
chTransparency>0.0000</ArchTransparency>^J<ArchLuminance>0.0000</ArchLuminance>^J</ArchMatParameters>^J<MapSet>^J<MapLib>^J<TextureMap name="ASI - Stainless Steel - 93 Satin texture" id="RevitTextureDefinition6208">^J<BitmapMap>^J<TexMapCoords2d>^J<TextureCoords>
300
^J<ExplicitMapChannel CoordPlane="uv">^J<MapChannel>1</MapChannel>^J<UCoords>^J<OffsetCoord>0.0000</OffsetCoord>^J<TilingCoord>0.0000</TilingCoord>^J<TextureTiling Tiling="tile"/>^J</UCoords>^J<VCoords>^J<OffsetCoord>0.0000</OffsetCoord>^J<TilingCoord>0.0000</Tilin
300
gCoord>^J<TextureTiling Tiling="tile"/>^J</VCoords>^J</ExplicitMapChannel>^J</TextureCoords>^J</TexMapCoords2d>^J<BitmapParameters>^J<BitmapFile filename="C:\Users\Andy\AppData\Local\Temp"/>^J<Cropping on="0" CropType="crop">^J<UCrop>0.0</UCrop>^J<VCrop>0.0</VCrop>
300
^J<WCrop>1.0</WCrop>^J<HCrop>1.0</HCrop>^J</Cropping>^J</BitmapParameters>^J</BitmapMap>^J</TextureMap>^J</MapLib>^J<Map on="1" TexMapChannelNum="1" TexMapChannel="Diffuse Map" Amount="100" TexMapRef="RevitTextureDefinition6208"/>^J</MapSet>^J</ArchitecturalMateria
300
l>^J</Material>^J
  0
CELLSTYLEMAP
  5
7D0
102
{ACAD_REACTORS
330
7CF
102
}
330
7CF
100
AcDbCellStyleMap
 90
        3
300
CELLSTYLE
  1
TABLEFORMAT_BEGIN
 90
        5
170
     1
 91
        0
 92
    32768
 62
   257
 93
        1
300
CONTENTFORMAT
  1
CONTENTFORMAT_BEGIN
 90
        0
 91
        0
 92
      512
 93
        0
300

 40
0.0
140
1.0
 94
        5
 62
     0
340
5D
144
0.25
309
CONTENTFORMAT_END
171
     0
 94
        0
309
TABLEFORMAT_END
  1
CELLSTYLE_BEGIN
 90
        1
 91
        1
300
_TITLE
309
CELLSTYLE_END
300
CELLSTYLE
  1
TABLEFORMAT_BEGIN
 90
        5
170
     1
 91
        0
 92
        0
 62
   257
 93
        1
300
CONTENTFORMAT
  1
CONTENTFORMAT_BEGIN
 90
        0
 91
        0
 92
      512
 93
        0
300

 40
0.0
140
1.0
 94
        5
 62
     0
340
5D
144
0.18
309
CONTENTFORMAT_END
171
     0
 94
        0
309
TABLEFORMAT_END
  1
CELLSTYLE_BEGIN
 90
        2
 91
        1
300
_HEADER
309
CELLSTYLE_END
300
CELLSTYLE
  1
TABLEFORMAT_BEGIN
 90
        5
170
     1
 91
        0
 92
        0
 62
   257
 93
        1
300
CONTENTFORMAT
  1
CONTENTFORMAT_BEGIN
 90
        0
 91
        0
 92
      512
 93
        0
300

 40
0.0
140
1.0
 94
        2
 62
     0
340
5D
144
0.18
309
CONTENTFORMAT_END
171
     0
 94
        0
309
TABLEFORMAT_END
  1
CELLSTYLE_BEGIN
 90
        3
 91
        2
300
_DATA
309
CELLSTYLE_END
  0
ENDSEC
  0
EOF
