  0
SECTION
  2
HEADER
  9
$ACADVER
  1
AC1021
  9
$ACADMAINTVER
 70
    50
  9
$DWGCODEPAGE
  3
ANSI_1252
  9
$INSBASE
 10
0.0
 20
0.0
 30
0.0
  9
$EXTMIN
 10
-24.00000000999932
 20
-20.78354230269875
 30
-0.0000000099998561
  9
$EXTMAX
 10
24.00000001000068
 20
27.21645771730125
 30
7.687499999999999
  9
$LIMMIN
 10
0.0
 20
0.0
  9
$LIMMAX
 10
12.0
 20
9.0
  9
$ORTHOMODE
 70
     0
  9
$REGENMODE
 70
     1
  9
$FILLMODE
 70
     1
  9
$QTEXTMODE
 70
     0
  9
$MIRRTEXT
 70
     0
  9
$LTSCALE
 40
1.0
  9
$ATTMODE
 70
     1
  9
$TEXTSIZE
 40
0.2
  9
$TRACEWID
 40
0.05
  9
$TEXTSTYLE
  7
Standard
  9
$CLAYER
  8
0
  9
$CELTYPE
  6
ByLayer
  9
$CECOLOR
 62
   256
  9
$CELTSCALE
 40
1.0
  9
$DISPSILH
 70
     0
  9
$DIMSCALE
 40
1.0
  9
$DIMASZ
 40
0.18
  9
$DIMEXO
 40
0.0625
  9
$DIMDLI
 40
0.38
  9
$DIMRND
 40
0.0
  9
$DIMDLE
 40
0.0
  9
$DIMEXE
 40
0.18
  9
$DIMTP
 40
0.0
  9
$DIMTM
 40
0.0
  9
$DIMTXT
 40
0.18
  9
$DIMCEN
 40
0.09
  9
$DIMTSZ
 40
0.0
  9
$DIMTOL
 70
     0
  9
$DIMLIM
 70
     0
  9
$DIMTIH
 70
     1
  9
$DIMTOH
 70
     1
  9
$DIMSE1
 70
     0
  9
$DIMSE2
 70
     0
  9
$DIMTAD
 70
     0
  9
$DIMZIN
 70
     0
  9
$DIMBLK
  1

  9
$DIMASO
 70
     1
  9
$DIMSHO
 70
     1
  9
$DIMPOST
  1

  9
$DIMAPOST
  1

  9
$DIMALT
 70
     0
  9
$DIMALTD
 70
     2
  9
$DIMALTF
 40
25.4
  9
$DIMLFAC
 40
1.0
  9
$DIMTOFL
 70
     0
  9
$DIMTVP
 40
0.0
  9
$DIMTIX
 70
     0
  9
$DIMSOXD
 70
     0
  9
$DIMSAH
 70
     0
  9
$DIMBLK1
  1

  9
$DIMBLK2
  1

  9
$DIMSTYLE
  2
Standard
  9
$DIMCLRD
 70
     0
  9
$DIMCLRE
 70
     0
  9
$DIMCLRT
 70
     0
  9
$DIMTFAC
 40
1.0
  9
$DIMGAP
 40
0.09
  9
$DIMJUST
 70
     0
  9
$DIMSD1
 70
     0
  9
$DIMSD2
 70
     0
  9
$DIMTOLJ
 70
     1
  9
$DIMTZIN
 70
     0
  9
$DIMALTZ
 70
     0
  9
$DIMALTTZ
 70
     0
  9
$DIMUPT
 70
     0
  9
$DIMDEC
 70
     4
  9
$DIMTDEC
 70
     4
  9
$DIMALTU
 70
     4
  9
$DIMALTTD
 70
     2
  9
$DIMTXSTY
  7
Standard
  9
$DIMAUNIT
 70
     0
  9
$DIMADEC
 70
     0
  9
$DIMALTRND
 40
0.0
  9
$DIMAZIN
 70
     0
  9
$DIMDSEP
 70
    46
  9
$DIMATFIT
 70
     3
  9
$DIMFRAC
 70
     0
  9
$DIMLDRBLK
  1

  9
$DIMLUNIT
 70
     4
  9
$DIMLWD
 70
    -2
  9
$DIMLWE
 70
    -2
  9
$DIMTMOVE
 70
     0
  9
$DIMFXL
 40
1.0
  9
$DIMFXLON
 70
     0
  9
$DIMJOGANG
 40
0.7853981633974483
  9
$DIMTFILL
 70
     0
  9
$DIMTFILLCLR
 70
     0
  9
$DIMARCSYM
 70
     0
  9
$DIMLTYPE
  6

  9
$DIMLTEX1
  6

  9
$DIMLTEX2
  6

  9
$LUNITS
 70
     4
  9
$LUPREC
 70
     4
  9
$SKETCHINC
 40
0.1
  9
$FILLETRAD
 40
0.0
  9
$AUNITS
 70
     0
  9
$AUPREC
 70
     0
  9
$MENU
  1
.
  9
$ELEVATION
 40
0.0
  9
$PELEVATION
 40
0.0
  9
$THICKNESS
 40
0.0
  9
$LIMCHECK
 70
     0
  9
$CHAMFERA
 40
0.0
  9
$CHAMFERB
 40
0.0
  9
$CHAMFERC
 40
0.0
  9
$CHAMFERD
 40
0.0
  9
$SKPOLY
 70
     0
  9
$TDCREATE
 40
2456259.411938021
  9
$TDUCREATE
 40
2456259.620271354
  9
$TDUPDATE
 40
2456259.411938021
  9
$TDUUPDATE
 40
2456259.620271354
  9
$TDINDWG
 40
0.0000005440
  9
$TDUSRTIMER
 40
0.0000005440
  9
$USRTIMER
 70
     1
  9
$ANGBASE
 50
0.0
  9
$ANGDIR
 70
     0
  9
$PDMODE
 70
     0
  9
$PDSIZE
 40
0.0
  9
$PLINEWID
 40
0.0
  9
$SPLFRAME
 70
     0
  9
$SPLINETYPE
 70
     6
  9
$SPLINESEGS
 70
     8
  9
$HANDSEED
  5
3F0
  9
$SURFTAB1
 70
     6
  9
$SURFTAB2
 70
     6
  9
$SURFTYPE
 70
     6
  9
$SURFU
 70
     6
  9
$SURFV
 70
     6
  9
$UCSBASE
  2

  9
$UCSNAME
  2

  9
$UCSORG
 10
0.0
 20
0.0
 30
0.0
  9
$UCSXDIR
 10
1.0
 20
0.0
 30
0.0
  9
$UCSYDIR
 10
0.0
 20
1.0
 30
0.0
  9
$UCSORTHOREF
  2

  9
$UCSORTHOVIEW
 70
     0
  9
$UCSORGTOP
 10
0.0
 20
0.0
 30
0.0
  9
$UCSORGBOTTOM
 10
0.0
 20
0.0
 30
0.0
  9
$UCSORGLEFT
 10
0.0
 20
0.0
 30
0.0
  9
$UCSORGRIGHT
 10
0.0
 20
0.0
 30
0.0
  9
$UCSORGFRONT
 10
0.0
 20
0.0
 30
0.0
  9
$UCSORGBACK
 10
0.0
 20
0.0
 30
0.0
  9
$PUCSBASE
  2

  9
$PUCSNAME
  2

  9
$PUCSORG
 10
0.0
 20
0.0
 30
0.0
  9
$PUCSXDIR
 10
1.0
 20
0.0
 30
0.0
  9
$PUCSYDIR
 10
0.0
 20
1.0
 30
0.0
  9
$PUCSORTHOREF
  2

  9
$PUCSORTHOVIEW
 70
     0
  9
$PUCSORGTOP
 10
0.0
 20
0.0
 30
0.0
  9
$PUCSORGBOTTOM
 10
0.0
 20
0.0
 30
0.0
  9
$PUCSORGLEFT
 10
0.0
 20
0.0
 30
0.0
  9
$PUCSORGRIGHT
 10
0.0
 20
0.0
 30
0.0
  9
$PUCSORGFRONT
 10
0.0
 20
0.0
 30
0.0
  9
$PUCSORGBACK
 10
0.0
 20
0.0
 30
0.0
  9
$USERI1
 70
     0
  9
$USERI2
 70
     0
  9
$USERI3
 70
     0
  9
$USERI4
 70
     0
  9
$USERI5
 70
     0
  9
$USERR1
 40
0.0
  9
$USERR2
 40
0.0
  9
$USERR3
 40
0.0
  9
$USERR4
 40
0.0
  9
$USERR5
 40
0.0
  9
$WORLDVIEW
 70
     1
  9
$SHADEDGE
 70
     3
  9
$SHADEDIF
 70
    70
  9
$TILEMODE
 70
     1
  9
$MAXACTVP
 70
    64
  9
$PINSBASE
 10
0.0
 20
0.0
 30
0.0
  9
$PLIMCHECK
 70
     0
  9
$PEXTMIN
 10
1.000000000000000E+20
 20
1.000000000000000E+20
 30
1.000000000000000E+20
  9
$PEXTMAX
 10
-1.000000000000000E+20
 20
-1.000000000000000E+20
 30
-1.000000000000000E+20
  9
$PLIMMIN
 10
0.0
 20
0.0
  9
$PLIMMAX
 10
12.0
 20
9.0
  9
$UNITMODE
 70
     0
  9
$VISRETAIN
 70
     1
  9
$PLINEGEN
 70
     0
  9
$PSLTSCALE
 70
     1
  9
$TREEDEPTH
 70
  3020
  9
$CMLSTYLE
  2
Standard
  9
$CMLJUST
 70
     0
  9
$CMLSCALE
 40
1.0
  9
$PROXYGRAPHICS
 70
     1
  9
$MEASUREMENT
 70
     0
  9
$CELWEIGHT
370
    -1
  9
$ENDCAPS
280
     0
  9
$JOINSTYLE
280
     0
  9
$LWDISPLAY
290
     0
  9
$INSUNITS
 70
     1
  9
$HYPERLINKBASE
  1

  9
$STYLESHEET
  1

  9
$XEDIT
290
     1
  9
$CEPSNTYPE
380
     0
  9
$PSTYLEMODE
290
     1
  9
$FINGERPRINTGUID
  2
{E7216325-35E0-4C3B-BE8D-90CAC8DC51DA}
  9
$VERSIONGUID
  2
{3E23432B-113E-4050-B90A-9A71F1037BFB}
  9
$EXTNAMES
290
     1
  9
$PSVPSCALE
 40
0.0
  9
$OLESTARTUP
290
     0
  9
$SORTENTS
280
   127
  9
$INDEXCTL
280
     0
  9
$HIDETEXT
280
     1
  9
$XCLIPFRAME
290
     0
  9
$HALOGAP
280
     0
  9
$OBSCOLOR
 70
   257
  9
$OBSLTYPE
280
     0
  9
$INTERSECTIONDISPLAY
280
     0
  9
$INTERSECTIONCOLOR
 70
   257
  9
$DIMASSOC
280
     2
  9
$PROJECTNAME
  1

  9
$CAMERADISPLAY
290
     0
  9
$LENSLENGTH
 40
50.0
  9
$CAMERAHEIGHT
 40
0.0
  9
$STEPSPERSEC
 40
2.0
  9
$STEPSIZE
 40
6.0
  9
$3DDWFPREC
 40
2.0
  9
$PSOLWIDTH
 40
0.25
  9
$PSOLHEIGHT
 40
4.0
  9
$LOFTANG1
 40
1.570796326794896
  9
$LOFTANG2
 40
1.570796326794896
  9
$LOFTMAG1
 40
0.0
  9
$LOFTMAG2
 40
0.0
  9
$LOFTPARAM
 70
     7
  9
$LOFTNORMALS
280
     1
  9
$LATITUDE
 40
37.795
  9
$LONGITUDE
 40
-122.394
  9
$NORTHDIRECTION
 40
0.0
  9
$TIMEZONE
 70
 -8000
  9
$LIGHTGLYPHDISPLAY
280
     1
  9
$TILEMODELIGHTSYNCH
280
     1
  9
$CMATERIAL
347
11
  9
$SOLIDHIST
280
     1
  9
$SHOWHIST
280
     1
  9
$DWFFRAME
280
     2
  9
$DGNFRAME
280
     0
  9
$REALWORLDSCALE
290
     1
  9
$INTERFERECOLOR
 62
     1
  9
$INTERFEREOBJVS
345
33
  9
$INTERFEREVPVS
346
30
  9
$CSHADOW
280
     0
  9
$SHADOWPLANELOCATION
 40
0.0
  0
ENDSEC
  0
SECTION
  2
CLASSES
  0
CLASS
  1
ACDBDICTIONARYWDFLT
  2
AcDbDictionaryWithDefault
  3
ObjectDBX Classes
 90
        0
 91
        1
280
     0
281
     0
  0
CLASS
  1
MATERIAL
  2
AcDbMaterial
  3
ObjectDBX Classes
 90
     1153
 91
        5
280
     0
281
     0
  0
CLASS
  1
VISUALSTYLE
  2
AcDbVisualStyle
  3
ObjectDBX Classes
 90
     4095
 91
       16
280
     0
281
     0
  0
CLASS
  1
SCALE
  2
AcDbScale
  3
ObjectDBX Classes
 90
     1153
 91
       33
280
     0
281
     0
  0
CLASS
  1
TABLESTYLE
  2
AcDbTableStyle
  3
ObjectDBX Classes
 90
     4095
 91
        1
280
     0
281
     0
  0
CLASS
  1
MLEADERSTYLE
  2
AcDbMLeaderStyle
  3
ACDB_MLEADERSTYLE_CLASS
 90
     4095
 91
        1
280
     0
281
     0
  0
CLASS
  1
DICTIONARYVAR
  2
AcDbDictionaryVar
  3
ObjectDBX Classes
 90
        0
 91
        3
280
     0
281
     0
  0
CLASS
  1
CELLSTYLEMAP
  2
AcDbCellStyleMap
  3
ObjectDBX Classes
 90
     1152
 91
        1
280
     0
281
     0
  0
ENDSEC
  0
SECTION
  2
TABLES
  0
TABLE
  2
VPORT
  5
8
330
0
100
AcDbSymbolTable
 70
     1
  0
VPORT
  5
5F
330
8
100
AcDbSymbolTableRecord
100
AcDbViewportTableRecord
  2
*Active
 70
     0
 10
0.0
 20
0.0
 11
1.0
 21
1.0
 12
0.0000000000006821
 22
3.216457707301248
 13
0.0
 23
0.0
 14
1.0
 24
1.0
 15
0.0
 25
0.0
 16
81.82444111372321
 26
81.82419379154948
 36
81.82594438157499
 17
0.0000000000005822
 27
-0.5468750000007536
 37
3.843749999998842
 40
48.00000001999999
 41
1.0
 42
50.0
 43
0.0
 44
0.0
 50
0.0
 51
0.0
 71
     0
 72
   100
 73
     1
 74
     1
 75
     0
 76
     0
 77
     0
 78
     0
281
     6
 65
     1
110
0.0
120
0.0
130
0.0
111
1.0
121
0.0
131
0.0
112
0.0
122
1.0
132
0.0
 79
     0
146
0.0
348
2D
 60
     3
 61
     5
292
     1
282
     1
141
0.0
142
0.0
 63
   250
421
  3355443
  0
ENDTAB
  0
TABLE
  2
LTYPE
  5
5
330
0
100
AcDbSymbolTable
 70
     1
  0
LTYPE
  5
63
330
5
100
AcDbSymbolTableRecord
100
AcDbLinetypeTableRecord
  2
ByBlock
 70
     0
  3

 72
    65
 73
     0
 40
0.0
  0
LTYPE
  5
64
330
5
100
AcDbSymbolTableRecord
100
AcDbLinetypeTableRecord
  2
ByLayer
 70
     0
  3

 72
    65
 73
     0
 40
0.0
  0
LTYPE
  5
65
330
5
100
AcDbSymbolTableRecord
100
AcDbLinetypeTableRecord
  2
Continuous
 70
     0
  3
Solid line
 72
    65
 73
     0
 40
0.0
  0
ENDTAB
  0
TABLE
  2
LAYER
  5
2
330
0
100
AcDbSymbolTable
 70
     2
  0
LAYER
  5
5C
330
2
100
AcDbSymbolTableRecord
100
AcDbLayerTableRecord
  2
0
 70
     0
 62
     7
  6
Continuous
370
    -3
390
F
347
21
  0
LAYER
  5
7F
330
2
100
AcDbSymbolTableRecord
100
AcDbLayerTableRecord
  2
3D-GENM
 70
     0
 62
     6
  6
Continuous
370
     9
390
F
347
21
  0
ENDTAB
  0
TABLE
  2
STYLE
  5
3
330
0
100
AcDbSymbolTable
 70
     2
  0
STYLE
  5
5D
330
3
100
AcDbSymbolTableRecord
100
AcDbTextStyleTableRecord
  2
Standard
 70
     0
 40
0.0
 41
1.0
 50
0.0
 71
     0
 42
0.2
  3
txt
  4

  0
STYLE
  5
62
330
3
100
AcDbSymbolTableRecord
100
AcDbTextStyleTableRecord
  2
Annotative
 70
     0
 40
0.0
 41
1.0
 50
0.0
 71
     0
 42
0.2
  3
txt
  4

1001
AcadAnnotative
1000
AnnotativeData
1002
{
1070
     1
1070
     1
1002
}
  0
ENDTAB
  0
TABLE
  2
VIEW
  5
6
330
0
100
AcDbSymbolTable
 70
     1
  0
VIEW
  5
3DF
330
6
100
AcDbSymbolTableRecord
100
AcDbViewTableRecord
  2
_3D_
 70
     0
 40
2400.0
 10
0.0
 20
0.0
 41
2400.0
 11
81.82444111372321
 21
81.82419379154948
 31
81.82594438157499
 12
0.0000000000005822
 22
-0.5468750000007536
 32
3.843749999998842
 42
50.0
 43
0.0
 44
0.0
 50
0.0
 71
     0
281
     0
 72
     0
 73
     0
  0
ENDTAB
  0
TABLE
  2
UCS
  5
7
330
0
100
AcDbSymbolTable
 70
     0
  0
ENDTAB
  0
TABLE
  2
APPID
  5
9
330
0
100
AcDbSymbolTable
 70
     4
  0
APPID
  5
5E
330
9
100
AcDbSymbolTableRecord
100
AcDbRegAppTableRecord
  2
ACAD
 70
     0
  0
APPID
  5
66
330
9
100
AcDbSymbolTableRecord
100
AcDbRegAppTableRecord
  2
AcadAnnotative
 70
     0
  0
APPID
  5
70
330
9
100
AcDbSymbolTableRecord
100
AcDbRegAppTableRecord
  2
ACAD_MLEADERVER
 70
     0
  0
APPID
  5
7D
330
9
100
AcDbSymbolTableRecord
100
AcDbRegAppTableRecord
  2
REVIT
 70
     0
  0
ENDTAB
  0
TABLE
  2
DIMSTYLE
  5
A
330
0
100
AcDbSymbolTable
 70
     2
100
AcDbDimStyleTable
 71
     0
  0
DIMSTYLE
105
60
330
A
100
AcDbSymbolTableRecord
100
AcDbDimStyleTableRecord
  2
Standard
 70
     0
340
5D
  0
DIMSTYLE
105
61
330
A
100
AcDbSymbolTableRecord
100
AcDbDimStyleTableRecord
  2
Annotative
 70
     0
340
5D
1001
AcadAnnotative
1000
AnnotativeData
1002
{
1070
     1
1070
     1
1002
}
  0
ENDTAB
  0
TABLE
  2
BLOCK_RECORD
  5
1
330
0
100
AcDbSymbolTable
 70
     4
  0
BLOCK_RECORD
  5
75
330
1
100
AcDbSymbolTableRecord
100
AcDbBlockTableRecord
  2
*Model_Space
340
78
 70
     0
280
     1
281
     0
  0
BLOCK_RECORD
  5
71
330
1
100
AcDbSymbolTableRecord
100
AcDbBlockTableRecord
  2
*Paper_Space
340
74
 70
     0
280
     1
281
     0
  0
BLOCK_RECORD
  5
79
330
1
100
AcDbSymbolTableRecord
100
AcDbBlockTableRecord
  2
*Paper_Space0
340
7C
 70
     0
280
     1
281
     0
  0
BLOCK_RECORD
  5
7E
330
1
100
AcDbSymbolTableRecord
100
AcDbBlockTableRecord
  2
FamilyGeomCombination_4858-_3D_
340
0
102
{BLKREFS
331
1A9
102
}
 70
     0
280
     1
281
     0
  0
BLOCK_RECORD
  5
1AA
330
1
100
AcDbSymbolTableRecord
100
AcDbBlockTableRecord
  2
FamilyGeomCombination_10825-_3D_
340
0
102
{BLKREFS
331
293
102
}
 70
     0
280
     1
281
     0
  0
BLOCK_RECORD
  5
294
330
1
100
AcDbSymbolTableRecord
100
AcDbBlockTableRecord
  2
FamilyGeomCombination_11304-_3D_
340
0
102
{BLKREFS
331
3DB
102
}
 70
     0
280
     1
281
     0
  0
ENDTAB
  0
ENDSEC
  0
SECTION
  2
BLOCKS
  0
BLOCK
  5
76
330
75
100
AcDbEntity
  8
0
100
AcDbBlockBegin
  2
*Model_Space
 70
     0
 10
0.0
 20
0.0
 30
0.0
  3
*Model_Space
  1

  0
ENDBLK
  5
77
330
75
100
AcDbEntity
  8
0
100
AcDbBlockEnd
  0
BLOCK
  5
72
330
71
100
AcDbEntity
 67
     1
  8
0
100
AcDbBlockBegin
  2
*Paper_Space
 70
     0
 10
0.0
 20
0.0
 30
0.0
  3
*Paper_Space
  1

  0
ENDBLK
  5
73
330
71
100
AcDbEntity
 67
     1
  8
0
100
AcDbBlockEnd
  0
BLOCK
  5
7A
330
79
100
AcDbEntity
 67
     1
  8
0
100
AcDbBlockBegin
  2
*Paper_Space0
 70
     0
 10
0.0
 20
0.0
 30
0.0
  3
*Paper_Space0
  1

  0
ENDBLK
  5
7B
330
79
100
AcDbEntity
 67
     1
  8
0
100
AcDbBlockEnd
  0
BLOCK
  5
1A7
330
7E
100
AcDbEntity
  8
0
100
AcDbBlockBegin
  2
FamilyGeomCombination_4858-_3D_
 70
     0
 10
0.0
 20
0.0
 30
0.0
  3
FamilyGeomCombination_4858-_3D_
  1

  0
POLYLINE
  5
80
330
7E
100
AcDbEntity
  8
3D-GENM
100
AcDbPolyFaceMesh
 66
     1
 10
0.0
 20
0.0
 30
0.0
 70
    64
 71
    12
 72
     8
1001
REVIT
1002
{
1070
     4
1000
5282
1002
}
1002
{
1070
     2
1000
-2000151
1002
}
  0
VERTEX
  5
81
330
80
100
AcDbEntity
  8
3D-GENM
100
AcDbVertex
100
AcDbPolyFaceMeshVertex
 10
6.34374976158142
 20
-9.531249761581419
 30
-0.0000000000001624
 70
   192
  0
VERTEX
  5
82
330
80
100
AcDbEntity
  8
3D-GENM
100
AcDbVertex
100
AcDbPolyFaceMeshVertex
 10
6.34374976158142
 20
0.2187499925494194
 30
-0.0000000000001368
 70
   192
  0
VERTEX
  5
83
330
80
100
AcDbEntity
  8
3D-GENM
100
AcDbVertex
100
AcDbPolyFaceMeshVertex
 10
6.34374976158142
 20
0.2187499925494194
 30
0.2500000074505805
 70
   192
  0
VERTEX
  5
84
330
80
100
AcDbEntity
  8
3D-GENM
100
AcDbVertex
100
AcDbPolyFaceMeshVertex
 10
6.34374976158142
 20
0.3465281501412391
 30
1.220571398735046
 70
   192
  0
VERTEX
  5
85
330
80
100
AcDbEntity
  8
3D-GENM
100
AcDbVertex
100
AcDbPolyFaceMeshVertex
 10
6.34374976158142
 20
0.7211547195911407
 30
2.124999940395354
 70
   192
  0
VERTEX
  5
86
330
80
100
AcDbEntity
  8
3D-GENM
100
AcDbVertex
100
AcDbPolyFaceMeshVertex
 10
6.34374976158142
 20
1.317099541425704
 30
2.901650369167327
 70
   192
  0
VERTEX
  5
87
330
80
100
AcDbEntity
  8
3D-GENM
100
AcDbVertex
100
AcDbPolyFaceMeshVertex
 10
6.34374976158142
 20
2.093750059604644
 30
3.497595191001891
 70
   192
  0
VERTEX
  5
88
330
80
100
AcDbEntity
  8
3D-GENM
100
AcDbVertex
100
AcDbPolyFaceMeshVertex
 10
6.34374976158142
 20
2.998178601264953
 30
3.872221827507018
 70
   192
  0
VERTEX
  5
89
330
80
100
AcDbEntity
  8
3D-GENM
100
AcDbVertex
100
AcDbPolyFaceMeshVertex
 10
6.34374976158142
 20
3.96874988079071
 30
4.000000119209288
 70
   192
  0
VERTEX
  5
8A
330
80
100
AcDbEntity
  8
3D-GENM
100
AcDbVertex
100
AcDbPolyFaceMeshVertex
 10
6.34374976158142
 20
9.281249999999998
 30
4.000000119209288
 70
   192
  0
VERTEX
  5
8B
330
80
100
AcDbEntity
  8
3D-GENM
100
AcDbVertex
100
AcDbPolyFaceMeshVertex
 10
6.34374976158142
 20
9.281249999999998
 30
5.249999999999999
 70
   192
  0
VERTEX
  5
8C
330
80
100
AcDbEntity
  8
3D-GENM
100
AcDbVertex
100
AcDbPolyFaceMeshVertex
 10
6.34374976158142
 20
-9.531249761581419
 30
5.249999999999999
 70
   192
  0
VERTEX
  5
8D
330
80
100
AcDbEntity
  8
3D-GENM
100
AcDbFaceRecord
 10
0.0
 20
0.0
 30
0.0
 70
   128
 71
     1
 72
     2
 73
    -3
  0
VERTEX
  5
8E
330
80
100
AcDbEntity
  8
3D-GENM
100
AcDbFaceRecord
 10
0.0
 20
0.0
 30
0.0
 70
   128
 71
    -1
 72
     3
 73
    -4
  0
VERTEX
  5
8F
330
80
100
AcDbEntity
  8
3D-GENM
100
AcDbFaceRecord
 10
0.0
 20
0.0
 30
0.0
 70
   128
 71
     4
 72
    -5
 73
    12
 74
    -1
  0
VERTEX
  5
90
330
80
100
AcDbEntity
  8
3D-GENM
100
AcDbFaceRecord
 10
0.0
 20
0.0
 30
0.0
 70
   128
 71
   -12
 72
     5
 73
    -6
  0
VERTEX
  5
91
330
80
100
AcDbEntity
  8
3D-GENM
100
AcDbFaceRecord
 10
0.0
 20
0.0
 30
0.0
 70
   128
 71
     7
 72
    -8
 73
   -12
  0
VERTEX
  5
92
330
80
100
AcDbEntity
  8
3D-GENM
100
AcDbFaceRecord
 10
0.0
 20
0.0
 30
0.0
 70
   128
 71
     6
 72
    -7
 73
   -12
  0
VERTEX
  5
93
330
80
100
AcDbEntity
  8
3D-GENM
100
AcDbFaceRecord
 10
0.0
 20
0.0
 30
0.0
 70
   128
 71
     9
 72
    10
 73
    11
 74
   -12
  0
VERTEX
  5
94
330
80
100
AcDbEntity
  8
3D-GENM
100
AcDbFaceRecord
 10
0.0
 20
0.0
 30
0.0
 70
   128
 71
    -9
 72
   -12
 73
     8
  0
SEQEND
  5
95
330
80
100
AcDbEntity
  8
3D-GENM
  0
POLYLINE
  5
96
330
7E
100
AcDbEntity
  8
3D-GENM
100
AcDbPolyFaceMesh
 66
     1
 10
0.0
 20
0.0
 30
0.0
 70
    64
 71
    12
 72
     8
1001
REVIT
1002
{
1070
     4
1000
5282
1002
}
1002
{
1070
     2
1000
-2000151
1002
}
  0
VERTEX
  5
97
330
96
100
AcDbEntity
  8
3D-GENM
100
AcDbVertex
100
AcDbPolyFaceMeshVertex
 10
-6.34374976158142
 20
-9.531249761581419
 30
-0.000000000000032
 70
   192
  0
VERTEX
  5
98
330
96
100
AcDbEntity
  8
3D-GENM
100
AcDbVertex
100
AcDbPolyFaceMeshVertex
 10
-6.34374976158142
 20
-9.531249761581419
 30
5.249999999999999
 70
   192
  0
VERTEX
  5
99
330
96
100
AcDbEntity
  8
3D-GENM
100
AcDbVertex
100
AcDbPolyFaceMeshVertex
 10
-6.34374976158142
 20
9.281249999999998
 30
5.249999999999999
 70
   192
  0
VERTEX
  5
9A
330
96
100
AcDbEntity
  8
3D-GENM
100
AcDbVertex
100
AcDbPolyFaceMeshVertex
 10
-6.34374976158142
 20
9.281249999999998
 30
4.000000119209288
 70
   192
  0
VERTEX
  5
9B
330
96
100
AcDbEntity
  8
3D-GENM
100
AcDbVertex
100
AcDbPolyFaceMeshVertex
 10
-6.34374976158142
 20
3.96874988079071
 30
4.000000119209288
 70
   192
  0
VERTEX
  5
9C
330
96
100
AcDbEntity
  8
3D-GENM
100
AcDbVertex
100
AcDbPolyFaceMeshVertex
 10
-6.34374976158142
 20
2.998178601264953
 30
3.872221827507018
 70
   192
  0
VERTEX
  5
9D
330
96
100
AcDbEntity
  8
3D-GENM
100
AcDbVertex
100
AcDbPolyFaceMeshVertex
 10
-6.34374976158142
 20
2.093750059604644
 30
3.497595191001891
 70
   192
  0
VERTEX
  5
9E
330
96
100
AcDbEntity
  8
3D-GENM
100
AcDbVertex
100
AcDbPolyFaceMeshVertex
 10
-6.34374976158142
 20
1.317099541425704
 30
2.901650369167327
 70
   192
  0
VERTEX
  5
9F
330
96
100
AcDbEntity
  8
3D-GENM
100
AcDbVertex
100
AcDbPolyFaceMeshVertex
 10
-6.34374976158142
 20
0.7211547195911407
 30
2.124999940395354
 70
   192
  0
VERTEX
  5
A0
330
96
100
AcDbEntity
  8
3D-GENM
100
AcDbVertex
100
AcDbPolyFaceMeshVertex
 10
-6.34374976158142
 20
0.3465281501412391
 30
1.220571398735046
 70
   192
  0
VERTEX
  5
A1
330
96
100
AcDbEntity
  8
3D-GENM
100
AcDbVertex
100
AcDbPolyFaceMeshVertex
 10
-6.34374976158142
 20
0.2187499925494194
 30
0.2500000074505805
 70
   192
  0
VERTEX
  5
A2
330
96
100
AcDbEntity
  8
3D-GENM
100
AcDbVertex
100
AcDbPolyFaceMeshVertex
 10
-6.34374976158142
 20
0.2187499925494194
 30
-0.0000000000000064
 70
   192
  0
VERTEX
  5
A3
330
96
100
AcDbEntity
  8
3D-GENM
100
AcDbFaceRecord
 10
0.0
 20
0.0
 30
0.0
 70
   128
 71
     7
 72
    -8
 73
    -2
  0
VERTEX
  5
A4
330
96
100
AcDbEntity
  8
3D-GENM
100
AcDbFaceRecord
 10
0.0
 20
0.0
 30
0.0
 70
   128
 71
     6
 72
    -7
 73
    -2
  0
VERTEX
  5
A5
330
96
100
AcDbEntity
  8
3D-GENM
100
AcDbFaceRecord
 10
0.0
 20
0.0
 30
0.0
 70
   128
 71
     3
 72
     4
 73
    -5
 74
     2
  0
VERTEX
  5
A6
330
96
100
AcDbEntity
  8
3D-GENM
100
AcDbFaceRecord
 10
0.0
 20
0.0
 30
0.0
 70
   128
 71
     5
 72
    -6
 73
    -2
  0
VERTEX
  5
A7
330
96
100
AcDbEntity
  8
3D-GENM
100
AcDbFaceRecord
 10
0.0
 20
0.0
 30
0.0
 70
   128
 71
    12
 72
    -1
 73
    11
  0
VERTEX
  5
A8
330
96
100
AcDbEntity
  8
3D-GENM
100
AcDbFaceRecord
 10
0.0
 20
0.0
 30
0.0
 70
   128
 71
   -11
 72
    -1
 73
    10
  0
VERTEX
  5
A9
330
96
100
AcDbEntity
  8
3D-GENM
100
AcDbFaceRecord
 10
0.0
 20
0.0
 30
0.0
 70
   128
 71
    -2
 72
     9
 73
   -10
 74
     1
  0
VERTEX
  5
AA
330
96
100
AcDbEntity
  8
3D-GENM
100
AcDbFaceRecord
 10
0.0
 20
0.0
 30
0.0
 70
   128
 71
    -9
 72
    -2
 73
     8
  0
SEQEND
  5
AB
330
96
100
AcDbEntity
  8
3D-GENM
  0
POLYLINE
  5
AC
330
7E
100
AcDbEntity
  8
3D-GENM
100
AcDbPolyFaceMesh
 66
     1
 10
0.0
 20
0.0
 30
0.0
 70
    64
 71
     4
 72
     1
1001
REVIT
1002
{
1070
     4
1000
5282
1002
}
1002
{
1070
     2
1000
-2000151
1002
}
  0
VERTEX
  5
AD
330
AC
100
AcDbEntity
  8
3D-GENM
100
AcDbVertex
100
AcDbPolyFaceMeshVertex
 10
6.34374976158142
 20
0.2187499925494194
 30
-0.0000000000001368
 70
   192
  0
VERTEX
  5
AE
330
AC
100
AcDbEntity
  8
3D-GENM
100
AcDbVertex
100
AcDbPolyFaceMeshVertex
 10
6.34374976158142
 20
-9.531249761581419
 30
-0.0000000000001624
 70
   192
  0
VERTEX
  5
AF
330
AC
100
AcDbEntity
  8
3D-GENM
100
AcDbVertex
100
AcDbPolyFaceMeshVertex
 10
-6.34374976158142
 20
-9.531249761581419
 30
-0.0000000000000321
 70
   192
  0
VERTEX
  5
B0
330
AC
100
AcDbEntity
  8
3D-GENM
100
AcDbVertex
100
AcDbPolyFaceMeshVertex
 10
-6.34374976158142
 20
0.2187499925494194
 30
-0.0000000000000064
 70
   192
  0
VERTEX
  5
B1
330
AC
100
AcDbEntity
  8
3D-GENM
100
AcDbFaceRecord
 10
0.0
 20
0.0
 30
0.0
 70
   128
 71
     1
 72
     2
 73
     3
 74
     4
  0
SEQEND
  5
B2
330
AC
100
AcDbEntity
  8
3D-GENM
  0
POLYLINE
  5
B3
330
7E
100
AcDbEntity
  8
3D-GENM
100
AcDbPolyFaceMesh
 66
     1
 10
0.0
 20
0.0
 30
0.0
 70
    64
 71
     4
 72
     1
1001
REVIT
1002
{
1070
     4
1000
5282
1002
}
1002
{
1070
     2
1000
-2000151
1002
}
  0
VERTEX
  5
B4
330
B3
100
AcDbEntity
  8
3D-GENM
100
AcDbVertex
100
AcDbPolyFaceMeshVertex
 10
6.34374976158142
 20
0.2187499925494194
 30
0.2500000074505805
 70
   192
  0
VERTEX
  5
B5
330
B3
100
AcDbEntity
  8
3D-GENM
100
AcDbVertex
100
AcDbPolyFaceMeshVertex
 10
6.34374976158142
 20
0.2187499925494194
 30
-0.0000000000001368
 70
   192
  0
VERTEX
  5
B6
330
B3
100
AcDbEntity
  8
3D-GENM
100
AcDbVertex
100
AcDbPolyFaceMeshVertex
 10
-6.34374976158142
 20
0.2187499925494194
 30
-0.0000000000000064
 70
   192
  0
VERTEX
  5
B7
330
B3
100
AcDbEntity
  8
3D-GENM
100
AcDbVertex
100
AcDbPolyFaceMeshVertex
 10
-6.34374976158142
 20
0.2187499925494194
 30
0.2500000074505805
 70
   192
  0
VERTEX
  5
B8
330
B3
100
AcDbEntity
  8
3D-GENM
100
AcDbFaceRecord
 10
0.0
 20
0.0
 30
0.0
 70
   128
 71
     4
 72
     1
 73
     2
 74
     3
  0
SEQEND
  5
B9
330
B3
100
AcDbEntity
  8
3D-GENM
  0
POLYLINE
  5
BA
330
7E
100
AcDbEntity
  8
3D-GENM
100
AcDbPolyFaceMesh
 66
     1
 10
0.0
 20
0.0
 30
0.0
 70
    64
 71
    20
 72
    14
1001
REVIT
1002
{
1070
     4
1000
5282
1002
}
1002
{
1070
     2
1000
-2000151
1002
}
  0
VERTEX
  5
BB
330
BA
100
AcDbEntity
  8
3D-GENM
100
AcDbVertex
100
AcDbPolyFaceMeshVertex
 10
3.937499999999999
 20
3.96874988079071
 30
4.000000119209288
 70
   192
  0
VERTEX
  5
BC
330
BA
100
AcDbEntity
  8
3D-GENM
100
AcDbVertex
100
AcDbPolyFaceMeshVertex
 10
3.937499999999999
 20
3.015569329261779
 30
3.876837015151977
 70
   192
  0
VERTEX
  5
BD
330
BA
100
AcDbEntity
  8
3D-GENM
100
AcDbVertex
100
AcDbPolyFaceMeshVertex
 10
3.937499999999999
 20
2.124999940395354
 30
3.515437960624694
 70
   192
  0
VERTEX
  5
BE
330
BA
100
AcDbEntity
  8
3D-GENM
100
AcDbVertex
100
AcDbPolyFaceMeshVertex
 10
-3.937499999999999
 20
2.124999940395354
 30
3.515437960624694
 70
   192
  0
VERTEX
  5
BF
330
BA
100
AcDbEntity
  8
3D-GENM
100
AcDbVertex
100
AcDbPolyFaceMeshVertex
 10
-3.937499999999999
 20
3.015569329261779
 30
3.876837015151977
 70
   192
  0
VERTEX
  5
C0
330
BA
100
AcDbEntity
  8
3D-GENM
100
AcDbVertex
100
AcDbPolyFaceMeshVertex
 10
-3.937499999999999
 20
3.96874988079071
 30
4.000000119209288
 70
   192
  0
VERTEX
  5
C1
330
BA
100
AcDbEntity
  8
3D-GENM
100
AcDbVertex
100
AcDbPolyFaceMeshVertex
 10
-6.34374976158142
 20
3.96874988079071
 30
4.000000119209288
 70
   192
  0
VERTEX
  5
C2
330
BA
100
AcDbEntity
  8
3D-GENM
100
AcDbVertex
100
AcDbPolyFaceMeshVertex
 10
-6.34374976158142
 20
2.998178601264953
 30
3.872221827507018
 70
   192
  0
VERTEX
  5
C3
330
BA
100
AcDbEntity
  8
3D-GENM
100
AcDbVertex
100
AcDbPolyFaceMeshVertex
 10
-6.34374976158142
 20
2.093750059604644
 30
3.497595191001891
 70
   192
  0
VERTEX
  5
C4
330
BA
100
AcDbEntity
  8
3D-GENM
100
AcDbVertex
100
AcDbPolyFaceMeshVertex
 10
-6.34374976158142
 20
1.317099541425704
 30
2.901650369167327
 70
   192
  0
VERTEX
  5
C5
330
BA
100
AcDbEntity
  8
3D-GENM
100
AcDbVertex
100
AcDbPolyFaceMeshVertex
 10
-6.34374976158142
 20
0.7211547195911407
 30
2.124999940395354
 70
   192
  0
VERTEX
  5
C6
330
BA
100
AcDbEntity
  8
3D-GENM
100
AcDbVertex
100
AcDbPolyFaceMeshVertex
 10
-6.34374976158142
 20
0.3465281501412391
 30
1.220571398735046
 70
   192
  0
VERTEX
  5
C7
330
BA
100
AcDbEntity
  8
3D-GENM
100
AcDbVertex
100
AcDbPolyFaceMeshVertex
 10
-6.34374976158142
 20
0.2187499925494194
 30
0.2500000074505805
 70
   192
  0
VERTEX
  5
C8
330
BA
100
AcDbEntity
  8
3D-GENM
100
AcDbVertex
100
AcDbPolyFaceMeshVertex
 10
6.34374976158142
 20
0.2187499925494194
 30
0.2500000074505805
 70
   192
  0
VERTEX
  5
C9
330
BA
100
AcDbEntity
  8
3D-GENM
100
AcDbVertex
100
AcDbPolyFaceMeshVertex
 10
6.34374976158142
 20
0.3465281501412391
 30
1.220571398735046
 70
   192
  0
VERTEX
  5
CA
330
BA
100
AcDbEntity
  8
3D-GENM
100
AcDbVertex
100
AcDbPolyFaceMeshVertex
 10
6.34374976158142
 20
0.7211547195911407
 30
2.124999940395354
 70
   192
  0
VERTEX
  5
CB
330
BA
100
AcDbEntity
  8
3D-GENM
100
AcDbVertex
100
AcDbPolyFaceMeshVertex
 10
6.34374976158142
 20
1.317099541425704
 30
2.901650369167327
 70
   192
  0
VERTEX
  5
CC
330
BA
100
AcDbEntity
  8
3D-GENM
100
AcDbVertex
100
AcDbPolyFaceMeshVertex
 10
6.34374976158142
 20
2.093750059604644
 30
3.497595191001891
 70
   192
  0
VERTEX
  5
CD
330
BA
100
AcDbEntity
  8
3D-GENM
100
AcDbVertex
100
AcDbPolyFaceMeshVertex
 10
6.34374976158142
 20
2.998178601264953
 30
3.872221827507018
 70
   192
  0
VERTEX
  5
CE
330
BA
100
AcDbEntity
  8
3D-GENM
100
AcDbVertex
100
AcDbPolyFaceMeshVertex
 10
6.34374976158142
 20
3.96874988079071
 30
4.000000119209288
 70
   192
  0
VERTEX
  5
CF
330
BA
100
AcDbEntity
  8
3D-GENM
100
AcDbFaceRecord
 10
0.0
 20
0.0
 30
0.0
 70
   128
 71
   -12
 72
    15
 73
    14
 74
    13
  0
VERTEX
  5
D0
330
BA
100
AcDbEntity
  8
3D-GENM
100
AcDbFaceRecord
 10
0.0
 20
0.0
 30
0.0
 70
   128
 71
   -10
 72
    17
 73
   -16
 74
    11
  0
VERTEX
  5
D1
330
BA
100
AcDbEntity
  8
3D-GENM
100
AcDbFaceRecord
 10
0.0
 20
0.0
 30
0.0
 70
   128
 71
   -11
 72
    16
 73
   -15
 74
    12
  0
VERTEX
  5
D2
330
BA
100
AcDbEntity
  8
3D-GENM
100
AcDbFaceRecord
 10
0.0
 20
0.0
 30
0.0
 70
   128
 71
   -17
 72
   -10
 73
     4
 74
    -3
  0
VERTEX
  5
D3
330
BA
100
AcDbEntity
  8
3D-GENM
100
AcDbFaceRecord
 10
0.0
 20
0.0
 30
0.0
 70
   128
 71
    -9
 72
    -4
 73
    10
  0
VERTEX
  5
D4
330
BA
100
AcDbEntity
  8
3D-GENM
100
AcDbFaceRecord
 10
0.0
 20
0.0
 30
0.0
 70
   128
 71
    -3
 72
    18
 73
   -17
  0
VERTEX
  5
D5
330
BA
100
AcDbEntity
  8
3D-GENM
100
AcDbFaceRecord
 10
0.0
 20
0.0
 30
0.0
 70
   128
 71
    -2
 72
   -19
 73
     3
  0
VERTEX
  5
D6
330
BA
100
AcDbEntity
  8
3D-GENM
100
AcDbFaceRecord
 10
0.0
 20
0.0
 30
0.0
 70
   128
 71
   -18
 72
    -3
 73
    19
  0
VERTEX
  5
D7
330
BA
100
AcDbEntity
  8
3D-GENM
100
AcDbFaceRecord
 10
0.0
 20
0.0
 30
0.0
 70
   128
 71
     1
 72
   -20
 73
     2
  0
VERTEX
  5
D8
330
BA
100
AcDbEntity
  8
3D-GENM
100
AcDbFaceRecord
 10
0.0
 20
0.0
 30
0.0
 70
   128
 71
   -19
 72
    -2
 73
    20
  0
VERTEX
  5
D9
330
BA
100
AcDbEntity
  8
3D-GENM
100
AcDbFaceRecord
 10
0.0
 20
0.0
 30
0.0
 70
   128
 71
     9
 72
    -8
 73
    -4
  0
VERTEX
  5
DA
330
BA
100
AcDbEntity
  8
3D-GENM
100
AcDbFaceRecord
 10
0.0
 20
0.0
 30
0.0
 70
   128
 71
     5
 72
    -4
 73
    -8
  0
VERTEX
  5
DB
330
BA
100
AcDbEntity
  8
3D-GENM
100
AcDbFaceRecord
 10
0.0
 20
0.0
 30
0.0
 70
   128
 71
     7
 72
     6
 73
    -5
  0
VERTEX
  5
DC
330
BA
100
AcDbEntity
  8
3D-GENM
100
AcDbFaceRecord
 10
0.0
 20
0.0
 30
0.0
 70
   128
 71
     8
 72
    -7
 73
    -5
  0
SEQEND
  5
DD
330
BA
100
AcDbEntity
  8
3D-GENM
  0
POLYLINE
  5
DE
330
7E
100
AcDbEntity
  8
3D-GENM
100
AcDbPolyFaceMesh
 66
     1
 10
0.0
 20
0.0
 30
0.0
 70
    64
 71
    20
 72
    10
1001
REVIT
1002
{
1070
     4
1000
5282
1002
}
1002
{
1070
     2
1000
-2000151
1002
}
  0
VERTEX
  5
DF
330
DE
100
AcDbEntity
  8
3D-GENM
100
AcDbVertex
100
AcDbPolyFaceMeshVertex
 10
6.34374976158142
 20
9.281249999999998
 30
4.000000119209288
 70
   192
  0
VERTEX
  5
E0
330
DE
100
AcDbEntity
  8
3D-GENM
100
AcDbVertex
100
AcDbPolyFaceMeshVertex
 10
6.34374976158142
 20
3.96874988079071
 30
4.000000119209288
 70
   192
  0
VERTEX
  5
E1
330
DE
100
AcDbEntity
  8
3D-GENM
100
AcDbVertex
100
AcDbPolyFaceMeshVertex
 10
3.937499999999999
 20
3.96874988079071
 30
4.000000119209288
 70
   192
  0
VERTEX
  5
E2
330
DE
100
AcDbEntity
  8
3D-GENM
100
AcDbVertex
100
AcDbPolyFaceMeshVertex
 10
3.937499999999999
 20
8.843750238418577
 30
4.000000119209288
 70
   192
  0
VERTEX
  5
E3
330
DE
100
AcDbEntity
  8
3D-GENM
100
AcDbVertex
100
AcDbPolyFaceMeshVertex
 10
-3.937499999999999
 20
8.843750238418577
 30
4.000000119209288
 70
   192
  0
VERTEX
  5
E4
330
DE
100
AcDbEntity
  8
3D-GENM
100
AcDbVertex
100
AcDbPolyFaceMeshVertex
 10
-3.937499999999999
 20
3.96874988079071
 30
4.000000119209288
 70
   192
  0
VERTEX
  5
E5
330
DE
100
AcDbEntity
  8
3D-GENM
100
AcDbVertex
100
AcDbPolyFaceMeshVertex
 10
-6.34374976158142
 20
3.96874988079071
 30
4.000000119209288
 70
   192
  0
VERTEX
  5
E6
330
DE
100
AcDbEntity
  8
3D-GENM
100
AcDbVertex
100
AcDbPolyFaceMeshVertex
 10
-6.34374976158142
 20
9.281249999999998
 30
4.000000119209288
 70
   192
  0
VERTEX
  5
E7
330
DE
100
AcDbEntity
  8
3D-GENM
100
AcDbVertex
100
AcDbPolyFaceMeshVertex
 10
-6.284120321273802
 20
9.734183549880979
 30
4.000000119209288
 70
   192
  0
VERTEX
  5
E8
330
DE
100
AcDbEntity
  8
3D-GENM
100
AcDbVertex
100
AcDbPolyFaceMeshVertex
 10
-6.109294652938841
 20
10.15625023841858
 30
4.000000119209288
 70
   192
  0
VERTEX
  5
E9
330
DE
100
AcDbEntity
  8
3D-GENM
100
AcDbVertex
100
AcDbPolyFaceMeshVertex
 10
-5.831186771392821
 20
10.51868677139282
 30
4.000000119209288
 70
   192
  0
VERTEX
  5
EA
330
DE
100
AcDbEntity
  8
3D-GENM
100
AcDbVertex
100
AcDbPolyFaceMeshVertex
 10
-5.468749880790709
 20
10.79679465293884
 30
4.000000119209288
 70
   192
  0
VERTEX
  5
EB
330
DE
100
AcDbEntity
  8
3D-GENM
100
AcDbVertex
100
AcDbPolyFaceMeshVertex
 10
-5.046683192253111
 20
10.9716203212738
 30
4.000000119209288
 70
   192
  0
VERTEX
  5
EC
330
DE
100
AcDbEntity
  8
3D-GENM
100
AcDbVertex
100
AcDbPolyFaceMeshVertex
 10
-4.593749999999999
 20
11.03124976158142
 30
4.000000119209288
 70
   192
  0
VERTEX
  5
ED
330
DE
100
AcDbEntity
  8
3D-GENM
100
AcDbVertex
100
AcDbPolyFaceMeshVertex
 10
4.593749999999999
 20
11.03124976158142
 30
4.000000119209288
 70
   192
  0
VERTEX
  5
EE
330
DE
100
AcDbEntity
  8
3D-GENM
100
AcDbVertex
100
AcDbPolyFaceMeshVertex
 10
5.046683192253111
 20
10.9716203212738
 30
4.000000119209288
 70
   192
  0
VERTEX
  5
EF
330
DE
100
AcDbEntity
  8
3D-GENM
100
AcDbVertex
100
AcDbPolyFaceMeshVertex
 10
5.468749880790709
 20
10.79679465293884
 30
4.000000119209288
 70
   192
  0
VERTEX
  5
F0
330
DE
100
AcDbEntity
  8
3D-GENM
100
AcDbVertex
100
AcDbPolyFaceMeshVertex
 10
5.831186771392821
 20
10.51868677139282
 30
4.000000119209288
 70
   192
  0
VERTEX
  5
F1
330
DE
100
AcDbEntity
  8
3D-GENM
100
AcDbVertex
100
AcDbPolyFaceMeshVertex
 10
6.109294652938841
 20
10.15625023841858
 30
4.000000119209288
 70
   192
  0
VERTEX
  5
F2
330
DE
100
AcDbEntity
  8
3D-GENM
100
AcDbVertex
100
AcDbPolyFaceMeshVertex
 10
6.284120321273802
 20
9.734183549880979
 30
4.000000119209288
 70
   192
  0
VERTEX
  5
F3
330
DE
100
AcDbEntity
  8
3D-GENM
100
AcDbFaceRecord
 10
0.0
 20
0.0
 30
0.0
 70
   128
 71
     1
 72
    -2
 73
    -4
 74
    20
  0
VERTEX
  5
F4
330
DE
100
AcDbEntity
  8
3D-GENM
100
AcDbFaceRecord
 10
0.0
 20
0.0
 30
0.0
 70
   128
 71
    -4
 72
     2
 73
     3
  0
VERTEX
  5
F5
330
DE
100
AcDbEntity
  8
3D-GENM
100
AcDbFaceRecord
 10
0.0
 20
0.0
 30
0.0
 70
   128
 71
    19
 72
   -20
 73
    -4
 74
    18
  0
VERTEX
  5
F6
330
DE
100
AcDbEntity
  8
3D-GENM
100
AcDbFaceRecord
 10
0.0
 20
0.0
 30
0.0
 70
   128
 71
    17
 72
   -18
 73
    -4
 74
    16
  0
VERTEX
  5
F7
330
DE
100
AcDbEntity
  8
3D-GENM
100
AcDbFaceRecord
 10
0.0
 20
0.0
 30
0.0
 70
   128
 71
    15
 72
   -16
 73
     4
 74
    -5
  0
VERTEX
  5
F8
330
DE
100
AcDbEntity
  8
3D-GENM
100
AcDbFaceRecord
 10
0.0
 20
0.0
 30
0.0
 70
   128
 71
     5
 72
     6
 73
    -7
  0
VERTEX
  5
F9
330
DE
100
AcDbEntity
  8
3D-GENM
100
AcDbFaceRecord
 10
0.0
 20
0.0
 30
0.0
 70
   128
 71
     8
 72
    -9
 73
    -5
 74
     7
  0
VERTEX
  5
FA
330
DE
100
AcDbEntity
  8
3D-GENM
100
AcDbFaceRecord
 10
0.0
 20
0.0
 30
0.0
 70
   128
 71
    -5
 72
     9
 73
    10
 74
   -11
  0
VERTEX
  5
FB
330
DE
100
AcDbEntity
  8
3D-GENM
100
AcDbFaceRecord
 10
0.0
 20
0.0
 30
0.0
 70
   128
 71
    -5
 72
    13
 73
    14
 74
   -15
  0
VERTEX
  5
FC
330
DE
100
AcDbEntity
  8
3D-GENM
100
AcDbFaceRecord
 10
0.0
 20
0.0
 30
0.0
 70
   128
 71
    -5
 72
    11
 73
    12
 74
   -13
  0
SEQEND
  5
FD
330
DE
100
AcDbEntity
  8
3D-GENM
  0
POLYLINE
  5
FE
330
7E
100
AcDbEntity
  8
3D-GENM
100
AcDbPolyFaceMesh
 66
     1
 10
0.0
 20
0.0
 30
0.0
 70
    64
 71
     4
 72
     1
1001
REVIT
1002
{
1070
     4
1000
5282
1002
}
1002
{
1070
     2
1000
-2000151
1002
}
  0
VERTEX
  5
FF
330
FE
100
AcDbEntity
  8
3D-GENM
100
AcDbVertex
100
AcDbPolyFaceMeshVertex
 10
4.593749999999999
 20
11.03124976158142
 30
4.000000119209288
 70
   192
  0
VERTEX
  5
100
330
FE
100
AcDbEntity
  8
3D-GENM
100
AcDbVertex
100
AcDbPolyFaceMeshVertex
 10
-4.593749999999999
 20
11.03124976158142
 30
4.000000119209288
 70
   192
  0
VERTEX
  5
101
330
FE
100
AcDbEntity
  8
3D-GENM
100
AcDbVertex
100
AcDbPolyFaceMeshVertex
 10
-4.593749999999999
 20
11.03124976158142
 30
5.249999999999999
 70
   192
  0
VERTEX
  5
102
330
FE
100
AcDbEntity
  8
3D-GENM
100
AcDbVertex
100
AcDbPolyFaceMeshVertex
 10
4.593749999999999
 20
11.03124976158142
 30
5.249999999999999
 70
   192
  0
VERTEX
  5
103
330
FE
100
AcDbEntity
  8
3D-GENM
100
AcDbFaceRecord
 10
0.0
 20
0.0
 30
0.0
 70
   128
 71
     4
 72
     1
 73
     2
 74
     3
  0
SEQEND
  5
104
330
FE
100
AcDbEntity
  8
3D-GENM
  0
POLYLINE
  5
105
330
7E
100
AcDbEntity
  8
3D-GENM
100
AcDbPolyFaceMesh
 66
     1
 10
0.0
 20
0.0
 30
0.0
 70
    64
 71
    20
 72
    11
1001
REVIT
1002
{
1070
     4
1000
5282
1002
}
1002
{
1070
     2
1000
-2000151
1002
}
  0
VERTEX
  5
106
330
105
100
AcDbEntity
  8
3D-GENM
100
AcDbVertex
100
AcDbPolyFaceMeshVertex
 10
-6.34374976158142
 20
-9.531249761581419
 30
5.249999999999999
 70
   192
  0
VERTEX
  5
107
330
105
100
AcDbEntity
  8
3D-GENM
100
AcDbVertex
100
AcDbPolyFaceMeshVertex
 10
6.34374976158142
 20
-9.531249761581419
 30
5.249999999999999
 70
   192
  0
VERTEX
  5
108
330
105
100
AcDbEntity
  8
3D-GENM
100
AcDbVertex
100
AcDbPolyFaceMeshVertex
 10
6.34374976158142
 20
9.281249999999998
 30
5.249999999999999
 70
   192
  0
VERTEX
  5
109
330
105
100
AcDbEntity
  8
3D-GENM
100
AcDbVertex
100
AcDbPolyFaceMeshVertex
 10
6.284120321273802
 20
9.734183549880979
 30
5.249999999999999
 70
   192
  0
VERTEX
  5
10A
330
105
100
AcDbEntity
  8
3D-GENM
100
AcDbVertex
100
AcDbPolyFaceMeshVertex
 10
6.109294652938841
 20
10.15625023841858
 30
5.249999999999999
 70
   192
  0
VERTEX
  5
10B
330
105
100
AcDbEntity
  8
3D-GENM
100
AcDbVertex
100
AcDbPolyFaceMeshVertex
 10
5.831186771392821
 20
10.51868677139282
 30
5.249999999999999
 70
   192
  0
VERTEX
  5
10C
330
105
100
AcDbEntity
  8
3D-GENM
100
AcDbVertex
100
AcDbPolyFaceMeshVertex
 10
5.468749880790709
 20
10.79679465293884
 30
5.249999999999999
 70
   192
  0
VERTEX
  5
10D
330
105
100
AcDbEntity
  8
3D-GENM
100
AcDbVertex
100
AcDbPolyFaceMeshVertex
 10
5.046683192253111
 20
10.9716203212738
 30
5.249999999999999
 70
   192
  0
VERTEX
  5
10E
330
105
100
AcDbEntity
  8
3D-GENM
100
AcDbVertex
100
AcDbPolyFaceMeshVertex
 10
4.593749999999999
 20
11.03124976158142
 30
5.249999999999999
 70
   192
  0
VERTEX
  5
10F
330
105
100
AcDbEntity
  8
3D-GENM
100
AcDbVertex
100
AcDbPolyFaceMeshVertex
 10
-4.593749999999999
 20
11.03124976158142
 30
5.249999999999999
 70
   192
  0
VERTEX
  5
110
330
105
100
AcDbEntity
  8
3D-GENM
100
AcDbVertex
100
AcDbPolyFaceMeshVertex
 10
-5.046683192253111
 20
10.9716203212738
 30
5.249999999999999
 70
   192
  0
VERTEX
  5
111
330
105
100
AcDbEntity
  8
3D-GENM
100
AcDbVertex
100
AcDbPolyFaceMeshVertex
 10
-5.468749880790709
 20
10.79679465293884
 30
5.249999999999999
 70
   192
  0
VERTEX
  5
112
330
105
100
AcDbEntity
  8
3D-GENM
100
AcDbVertex
100
AcDbPolyFaceMeshVertex
 10
-5.831186771392821
 20
10.51868677139282
 30
5.249999999999999
 70
   192
  0
VERTEX
  5
113
330
105
100
AcDbEntity
  8
3D-GENM
100
AcDbVertex
100
AcDbPolyFaceMeshVertex
 10
-6.109294652938841
 20
10.15625023841858
 30
5.249999999999999
 70
   192
  0
VERTEX
  5
114
330
105
100
AcDbEntity
  8
3D-GENM
100
AcDbVertex
100
AcDbPolyFaceMeshVertex
 10
-6.284120321273802
 20
9.734183549880979
 30
5.249999999999999
 70
   192
  0
VERTEX
  5
115
330
105
100
AcDbEntity
  8
3D-GENM
100
AcDbVertex
100
AcDbPolyFaceMeshVertex
 10
-6.34374976158142
 20
9.281249999999998
 30
5.249999999999999
 70
   192
  0
VERTEX
  5
116
330
105
100
AcDbEntity
  8
3D-GENM
100
AcDbVertex
100
AcDbPolyFaceMeshVertex
 10
3.937499999999999
 20
8.843750238418577
 30
5.249999999999999
 70
   192
  0
VERTEX
  5
117
330
105
100
AcDbEntity
  8
3D-GENM
100
AcDbVertex
100
AcDbPolyFaceMeshVertex
 10
3.937499999999999
 20
2.124999940395354
 30
5.249999999999999
 70
   192
  0
VERTEX
  5
118
330
105
100
AcDbEntity
  8
3D-GENM
100
AcDbVertex
100
AcDbPolyFaceMeshVertex
 10
-3.937499999999999
 20
2.124999940395354
 30
5.249999999999999
 70
   192
  0
VERTEX
  5
119
330
105
100
AcDbEntity
  8
3D-GENM
100
AcDbVertex
100
AcDbPolyFaceMeshVertex
 10
-3.937499999999999
 20
8.843750238418577
 30
5.249999999999999
 70
   192
  0
VERTEX
  5
11A
330
105
100
AcDbEntity
  8
3D-GENM
100
AcDbFaceRecord
 10
0.0
 20
0.0
 30
0.0
 70
   128
 71
     5
 72
    -6
 73
   -17
 74
     4
  0
VERTEX
  5
11B
330
105
100
AcDbEntity
  8
3D-GENM
100
AcDbFaceRecord
 10
0.0
 20
0.0
 30
0.0
 70
   128
 71
     7
 72
    -8
 73
   -17
 74
     6
  0
VERTEX
  5
11C
330
105
100
AcDbEntity
  8
3D-GENM
100
AcDbFaceRecord
 10
0.0
 20
0.0
 30
0.0
 70
   128
 71
   -17
 72
     8
 73
    -9
 74
    20
  0
VERTEX
  5
11D
330
105
100
AcDbEntity
  8
3D-GENM
100
AcDbFaceRecord
 10
0.0
 20
0.0
 30
0.0
 70
   128
 71
   -18
 72
     2
 73
    -3
 74
    17
  0
VERTEX
  5
11E
330
105
100
AcDbEntity
  8
3D-GENM
100
AcDbFaceRecord
 10
0.0
 20
0.0
 30
0.0
 70
   128
 71
   -17
 72
     3
 73
    -4
  0
VERTEX
  5
11F
330
105
100
AcDbEntity
  8
3D-GENM
100
AcDbFaceRecord
 10
0.0
 20
0.0
 30
0.0
 70
   128
 71
     1
 72
    -2
 73
    18
 74
   -19
  0
VERTEX
  5
120
330
105
100
AcDbEntity
  8
3D-GENM
100
AcDbFaceRecord
 10
0.0
 20
0.0
 30
0.0
 70
   128
 71
    10
 72
   -11
 73
   -20
 74
     9
  0
VERTEX
  5
121
330
105
100
AcDbEntity
  8
3D-GENM
100
AcDbFaceRecord
 10
0.0
 20
0.0
 30
0.0
 70
   128
 71
    12
 72
   -13
 73
   -20
 74
    11
  0
VERTEX
  5
122
330
105
100
AcDbEntity
  8
3D-GENM
100
AcDbFaceRecord
 10
0.0
 20
0.0
 30
0.0
 70
   128
 71
   -20
 72
    13
 73
    14
 74
   -15
  0
VERTEX
  5
123
330
105
100
AcDbEntity
  8
3D-GENM
100
AcDbFaceRecord
 10
0.0
 20
0.0
 30
0.0
 70
   128
 71
    19
 72
   -20
 73
    16
 74
    -1
  0
VERTEX
  5
124
330
105
100
AcDbEntity
  8
3D-GENM
100
AcDbFaceRecord
 10
0.0
 20
0.0
 30
0.0
 70
   128
 71
   -16
 72
   -20
 73
    15
  0
SEQEND
  5
125
330
105
100
AcDbEntity
  8
3D-GENM
  0
POLYLINE
  5
126
330
7E
100
AcDbEntity
  8
3D-GENM
100
AcDbPolyFaceMesh
 66
     1
 10
0.0
 20
0.0
 30
0.0
 70
    64
 71
     4
 72
     1
1001
REVIT
1002
{
1070
     4
1000
5282
1002
}
1002
{
1070
     2
1000
-2000151
1002
}
  0
VERTEX
  5
127
330
126
100
AcDbEntity
  8
3D-GENM
100
AcDbVertex
100
AcDbPolyFaceMeshVertex
 10
6.34374976158142
 20
-9.531249761581419
 30
-0.0000000000001625
 70
   192
  0
VERTEX
  5
128
330
126
100
AcDbEntity
  8
3D-GENM
100
AcDbVertex
100
AcDbPolyFaceMeshVertex
 10
6.34374976158142
 20
-9.531249761581419
 30
5.249999999999999
 70
   192
  0
VERTEX
  5
129
330
126
100
AcDbEntity
  8
3D-GENM
100
AcDbVertex
100
AcDbPolyFaceMeshVertex
 10
-6.34374976158142
 20
-9.531249761581419
 30
5.249999999999999
 70
   192
  0
VERTEX
  5
12A
330
126
100
AcDbEntity
  8
3D-GENM
100
AcDbVertex
100
AcDbPolyFaceMeshVertex
 10
-6.34374976158142
 20
-9.531249761581419
 30
-0.000000000000032
 70
   192
  0
VERTEX
  5
12B
330
126
100
AcDbEntity
  8
3D-GENM
100
AcDbFaceRecord
 10
0.0
 20
0.0
 30
0.0
 70
   128
 71
     4
 72
     1
 73
     2
 74
     3
  0
SEQEND
  5
12C
330
126
100
AcDbEntity
  8
3D-GENM
  0
POLYLINE
  5
12D
330
7E
100
AcDbEntity
  8
3D-GENM
100
AcDbPolyFaceMesh
 66
     1
 10
0.0
 20
0.0
 30
0.0
 70
    64
 71
    14
 72
     6
1001
REVIT
1002
{
1070
     4
1000
5282
1002
}
1002
{
1070
     2
1000
-2000151
1002
}
  0
VERTEX
  5
12E
330
12D
100
AcDbEntity
  8
3D-GENM
100
AcDbVertex
100
AcDbPolyFaceMeshVertex
 10
-6.34374976158142
 20
9.281249999999998
 30
4.000000119209288
 70
   192
  0
VERTEX
  5
12F
330
12D
100
AcDbEntity
  8
3D-GENM
100
AcDbVertex
100
AcDbPolyFaceMeshVertex
 10
-6.34374976158142
 20
9.281249999999998
 30
5.249999999999999
 70
   192
  0
VERTEX
  5
130
330
12D
100
AcDbEntity
  8
3D-GENM
100
AcDbVertex
100
AcDbPolyFaceMeshVertex
 10
-6.284120321273802
 20
9.734183549880979
 30
5.249999999999999
 70
   192
  0
VERTEX
  5
131
330
12D
100
AcDbEntity
  8
3D-GENM
100
AcDbVertex
100
AcDbPolyFaceMeshVertex
 10
-6.109294652938841
 20
10.15625023841858
 30
5.249999999999999
 70
   192
  0
VERTEX
  5
132
330
12D
100
AcDbEntity
  8
3D-GENM
100
AcDbVertex
100
AcDbPolyFaceMeshVertex
 10
-5.831186771392821
 20
10.51868677139282
 30
5.249999999999999
 70
   192
  0
VERTEX
  5
133
330
12D
100
AcDbEntity
  8
3D-GENM
100
AcDbVertex
100
AcDbPolyFaceMeshVertex
 10
-5.468749880790709
 20
10.79679465293884
 30
5.249999999999999
 70
   192
  0
VERTEX
  5
134
330
12D
100
AcDbEntity
  8
3D-GENM
100
AcDbVertex
100
AcDbPolyFaceMeshVertex
 10
-5.046683192253111
 20
10.9716203212738
 30
5.249999999999999
 70
   192
  0
VERTEX
  5
135
330
12D
100
AcDbEntity
  8
3D-GENM
100
AcDbVertex
100
AcDbPolyFaceMeshVertex
 10
-4.593749999999999
 20
11.03124976158142
 30
5.249999999999999
 70
   192
  0
VERTEX
  5
136
330
12D
100
AcDbEntity
  8
3D-GENM
100
AcDbVertex
100
AcDbPolyFaceMeshVertex
 10
-4.593749999999999
 20
11.03124976158142
 30
4.000000119209288
 70
   192
  0
VERTEX
  5
137
330
12D
100
AcDbEntity
  8
3D-GENM
100
AcDbVertex
100
AcDbPolyFaceMeshVertex
 10
-5.046683192253111
 20
10.9716203212738
 30
4.000000119209288
 70
   192
  0
VERTEX
  5
138
330
12D
100
AcDbEntity
  8
3D-GENM
100
AcDbVertex
100
AcDbPolyFaceMeshVertex
 10
-5.468749880790709
 20
10.79679465293884
 30
4.000000119209288
 70
   192
  0
VERTEX
  5
139
330
12D
100
AcDbEntity
  8
3D-GENM
100
AcDbVertex
100
AcDbPolyFaceMeshVertex
 10
-5.831186771392821
 20
10.51868677139282
 30
4.000000119209288
 70
   192
  0
VERTEX
  5
13A
330
12D
100
AcDbEntity
  8
3D-GENM
100
AcDbVertex
100
AcDbPolyFaceMeshVertex
 10
-6.109294652938841
 20
10.15625023841858
 30
4.000000119209288
 70
   192
  0
VERTEX
  5
13B
330
12D
100
AcDbEntity
  8
3D-GENM
100
AcDbVertex
100
AcDbPolyFaceMeshVertex
 10
-6.284120321273802
 20
9.734183549880979
 30
4.000000119209288
 70
   192
  0
VERTEX
  5
13C
330
12D
100
AcDbEntity
  8
3D-GENM
100
AcDbFaceRecord
 10
0.0
 20
0.0
 30
0.0
 70
   128
 71
     1
 72
     2
 73
    -3
 74
    14
  0
VERTEX
  5
13D
330
12D
100
AcDbEntity
  8
3D-GENM
100
AcDbFaceRecord
 10
0.0
 20
0.0
 30
0.0
 70
   128
 71
   -14
 72
     3
 73
    -4
 74
    13
  0
VERTEX
  5
13E
330
12D
100
AcDbEntity
  8
3D-GENM
100
AcDbFaceRecord
 10
0.0
 20
0.0
 30
0.0
 70
   128
 71
    -5
 72
    12
 73
   -13
 74
     4
  0
VERTEX
  5
13F
330
12D
100
AcDbEntity
  8
3D-GENM
100
AcDbFaceRecord
 10
0.0
 20
0.0
 30
0.0
 70
   128
 71
   -10
 72
     7
 73
     8
 74
     9
  0
VERTEX
  5
140
330
12D
100
AcDbEntity
  8
3D-GENM
100
AcDbFaceRecord
 10
0.0
 20
0.0
 30
0.0
 70
   128
 71
   -11
 72
     6
 73
    -7
 74
    10
  0
VERTEX
  5
141
330
12D
100
AcDbEntity
  8
3D-GENM
100
AcDbFaceRecord
 10
0.0
 20
0.0
 30
0.0
 70
   128
 71
    -6
 72
    11
 73
   -12
 74
     5
  0
SEQEND
  5
142
330
12D
100
AcDbEntity
  8
3D-GENM
  0
POLYLINE
  5
143
330
7E
100
AcDbEntity
  8
3D-GENM
100
AcDbPolyFaceMesh
 66
     1
 10
0.0
 20
0.0
 30
0.0
 70
    64
 71
    14
 72
     6
1001
REVIT
1002
{
1070
     4
1000
5282
1002
}
1002
{
1070
     2
1000
-2000151
1002
}
  0
VERTEX
  5
144
330
143
100
AcDbEntity
  8
3D-GENM
100
AcDbVertex
100
AcDbPolyFaceMeshVertex
 10
6.34374976158142
 20
9.281249999999998
 30
5.249999999999999
 70
   192
  0
VERTEX
  5
145
330
143
100
AcDbEntity
  8
3D-GENM
100
AcDbVertex
100
AcDbPolyFaceMeshVertex
 10
6.34374976158142
 20
9.281249999999998
 30
4.000000119209288
 70
   192
  0
VERTEX
  5
146
330
143
100
AcDbEntity
  8
3D-GENM
100
AcDbVertex
100
AcDbPolyFaceMeshVertex
 10
6.284120321273802
 20
9.734183549880979
 30
4.000000119209288
 70
   192
  0
VERTEX
  5
147
330
143
100
AcDbEntity
  8
3D-GENM
100
AcDbVertex
100
AcDbPolyFaceMeshVertex
 10
6.109294652938841
 20
10.15625023841858
 30
4.000000119209288
 70
   192
  0
VERTEX
  5
148
330
143
100
AcDbEntity
  8
3D-GENM
100
AcDbVertex
100
AcDbPolyFaceMeshVertex
 10
5.831186771392821
 20
10.51868677139282
 30
4.000000119209288
 70
   192
  0
VERTEX
  5
149
330
143
100
AcDbEntity
  8
3D-GENM
100
AcDbVertex
100
AcDbPolyFaceMeshVertex
 10
5.468749880790709
 20
10.79679465293884
 30
4.000000119209288
 70
   192
  0
VERTEX
  5
14A
330
143
100
AcDbEntity
  8
3D-GENM
100
AcDbVertex
100
AcDbPolyFaceMeshVertex
 10
5.046683192253111
 20
10.9716203212738
 30
4.000000119209288
 70
   192
  0
VERTEX
  5
14B
330
143
100
AcDbEntity
  8
3D-GENM
100
AcDbVertex
100
AcDbPolyFaceMeshVertex
 10
4.593749999999999
 20
11.03124976158142
 30
4.000000119209288
 70
   192
  0
VERTEX
  5
14C
330
143
100
AcDbEntity
  8
3D-GENM
100
AcDbVertex
100
AcDbPolyFaceMeshVertex
 10
4.593749999999999
 20
11.03124976158142
 30
5.249999999999999
 70
   192
  0
VERTEX
  5
14D
330
143
100
AcDbEntity
  8
3D-GENM
100
AcDbVertex
100
AcDbPolyFaceMeshVertex
 10
5.046683192253111
 20
10.9716203212738
 30
5.249999999999999
 70
   192
  0
VERTEX
  5
14E
330
143
100
AcDbEntity
  8
3D-GENM
100
AcDbVertex
100
AcDbPolyFaceMeshVertex
 10
5.468749880790709
 20
10.79679465293884
 30
5.249999999999999
 70
   192
  0
VERTEX
  5
14F
330
143
100
AcDbEntity
  8
3D-GENM
100
AcDbVertex
100
AcDbPolyFaceMeshVertex
 10
5.831186771392821
 20
10.51868677139282
 30
5.249999999999999
 70
   192
  0
VERTEX
  5
150
330
143
100
AcDbEntity
  8
3D-GENM
100
AcDbVertex
100
AcDbPolyFaceMeshVertex
 10
6.109294652938841
 20
10.15625023841858
 30
5.249999999999999
 70
   192
  0
VERTEX
  5
151
330
143
100
AcDbEntity
  8
3D-GENM
100
AcDbVertex
100
AcDbPolyFaceMeshVertex
 10
6.284120321273802
 20
9.734183549880979
 30
5.249999999999999
 70
   192
  0
VERTEX
  5
152
330
143
100
AcDbEntity
  8
3D-GENM
100
AcDbFaceRecord
 10
0.0
 20
0.0
 30
0.0
 70
   128
 71
     8
 72
     9
 73
   -10
 74
     7
  0
VERTEX
  5
153
330
143
100
AcDbEntity
  8
3D-GENM
100
AcDbFaceRecord
 10
0.0
 20
0.0
 30
0.0
 70
   128
 71
    -7
 72
    10
 73
   -11
 74
     6
  0
VERTEX
  5
154
330
143
100
AcDbEntity
  8
3D-GENM
100
AcDbFaceRecord
 10
0.0
 20
0.0
 30
0.0
 70
   128
 71
   -12
 72
     5
 73
    -6
 74
    11
  0
VERTEX
  5
155
330
143
100
AcDbEntity
  8
3D-GENM
100
AcDbFaceRecord
 10
0.0
 20
0.0
 30
0.0
 70
   128
 71
    -4
 72
    13
 73
   -14
 74
     3
  0
VERTEX
  5
156
330
143
100
AcDbEntity
  8
3D-GENM
100
AcDbFaceRecord
 10
0.0
 20
0.0
 30
0.0
 70
   128
 71
    -3
 72
    14
 73
     1
 74
     2
  0
VERTEX
  5
157
330
143
100
AcDbEntity
  8
3D-GENM
100
AcDbFaceRecord
 10
0.0
 20
0.0
 30
0.0
 70
   128
 71
   -13
 72
     4
 73
    -5
 74
    12
  0
SEQEND
  5
158
330
143
100
AcDbEntity
  8
3D-GENM
  0
POLYLINE
  5
159
330
7E
100
AcDbEntity
  8
3D-GENM
100
AcDbPolyFaceMesh
 66
     1
 10
0.0
 20
0.0
 30
0.0
 70
    64
 71
     4
 72
     1
1001
REVIT
1002
{
1070
     4
1000
5282
1002
}
1002
{
1070
     2
1000
-2000151
1002
}
  0
VERTEX
  5
15A
330
159
100
AcDbEntity
  8
3D-GENM
100
AcDbVertex
100
AcDbPolyFaceMeshVertex
 10
-4.999999880790709
 20
-11.03124976158142
 30
0.000000000001147
 70
   192
  0
VERTEX
  5
15B
330
159
100
AcDbEntity
  8
3D-GENM
100
AcDbVertex
100
AcDbPolyFaceMeshVertex
 10
-4.999999880790709
 20
-11.03124976158142
 30
4.499999999999999
 70
   192
  0
VERTEX
  5
15C
330
159
100
AcDbEntity
  8
3D-GENM
100
AcDbVertex
100
AcDbPolyFaceMeshVertex
 10
4.999999880790709
 20
-11.03124976158142
 30
4.499999999999999
 70
   192
  0
VERTEX
  5
15D
330
159
100
AcDbEntity
  8
3D-GENM
100
AcDbVertex
100
AcDbPolyFaceMeshVertex
 10
4.999999880790709
 20
-11.03124976158142
 30
-0.0000000000012916
 70
   192
  0
VERTEX
  5
15E
330
159
100
AcDbEntity
  8
3D-GENM
100
AcDbFaceRecord
 10
0.0
 20
0.0
 30
0.0
 70
   128
 71
     3
 72
     4
 73
     1
 74
     2
  0
SEQEND
  5
15F
330
159
100
AcDbEntity
  8
3D-GENM
  0
POLYLINE
  5
160
330
7E
100
AcDbEntity
  8
3D-GENM
100
AcDbPolyFaceMesh
 66
     1
 10
0.0
 20
0.0
 30
0.0
 70
    64
 71
     4
 72
     1
1001
REVIT
1002
{
1070
     4
1000
5282
1002
}
1002
{
1070
     2
1000
-2000151
1002
}
  0
VERTEX
  5
161
330
160
100
AcDbEntity
  8
3D-GENM
100
AcDbVertex
100
AcDbPolyFaceMeshVertex
 10
-4.999999880790709
 20
-12.12499952316284
 30
0.000000000001147
 70
   192
  0
VERTEX
  5
162
330
160
100
AcDbEntity
  8
3D-GENM
100
AcDbVertex
100
AcDbPolyFaceMeshVertex
 10
4.999999880790709
 20
-12.12499952316284
 30
-0.0000000000012916
 70
   192
  0
VERTEX
  5
163
330
160
100
AcDbEntity
  8
3D-GENM
100
AcDbVertex
100
AcDbPolyFaceMeshVertex
 10
4.999999880790709
 20
-12.12499952316284
 30
4.499999999999999
 70
   192
  0
VERTEX
  5
164
330
160
100
AcDbEntity
  8
3D-GENM
100
AcDbVertex
100
AcDbPolyFaceMeshVertex
 10
-4.999999880790709
 20
-12.12499952316284
 30
4.499999999999999
 70
   192
  0
VERTEX
  5
165
330
160
100
AcDbEntity
  8
3D-GENM
100
AcDbFaceRecord
 10
0.0
 20
0.0
 30
0.0
 70
   128
 71
     3
 72
     4
 73
     1
 74
     2
  0
SEQEND
  5
166
330
160
100
AcDbEntity
  8
3D-GENM
  0
POLYLINE
  5
167
330
7E
100
AcDbEntity
  8
3D-GENM
100
AcDbPolyFaceMesh
 66
     1
 10
0.0
 20
0.0
 30
0.0
 70
    64
 71
     4
 72
     1
1001
REVIT
1002
{
1070
     4
1000
5282
1002
}
1002
{
1070
     2
1000
-2000151
1002
}
  0
VERTEX
  5
168
330
167
100
AcDbEntity
  8
3D-GENM
100
AcDbVertex
100
AcDbPolyFaceMeshVertex
 10
-4.999999880790709
 20
-11.03124976158142
 30
4.499999999999999
 70
   192
  0
VERTEX
  5
169
330
167
100
AcDbEntity
  8
3D-GENM
100
AcDbVertex
100
AcDbPolyFaceMeshVertex
 10
-4.999999880790709
 20
-11.03124976158142
 30
0.000000000001147
 70
   192
  0
VERTEX
  5
16A
330
167
100
AcDbEntity
  8
3D-GENM
100
AcDbVertex
100
AcDbPolyFaceMeshVertex
 10
-4.999999880790709
 20
-12.12499952316284
 30
0.000000000001147
 70
   192
  0
VERTEX
  5
16B
330
167
100
AcDbEntity
  8
3D-GENM
100
AcDbVertex
100
AcDbPolyFaceMeshVertex
 10
-4.999999880790709
 20
-12.12499952316284
 30
4.499999999999999
 70
   192
  0
VERTEX
  5
16C
330
167
100
AcDbEntity
  8
3D-GENM
100
AcDbFaceRecord
 10
0.0
 20
0.0
 30
0.0
 70
   128
 71
     1
 72
     2
 73
     3
 74
     4
  0
SEQEND
  5
16D
330
167
100
AcDbEntity
  8
3D-GENM
  0
POLYLINE
  5
16E
330
7E
100
AcDbEntity
  8
3D-GENM
100
AcDbPolyFaceMesh
 66
     1
 10
0.0
 20
0.0
 30
0.0
 70
    64
 71
     4
 72
     1
1001
REVIT
1002
{
1070
     4
1000
5282
1002
}
1002
{
1070
     2
1000
-2000151
1002
}
  0
VERTEX
  5
16F
330
16E
100
AcDbEntity
  8
3D-GENM
100
AcDbVertex
100
AcDbPolyFaceMeshVertex
 10
4.999999880790709
 20
-11.03124976158142
 30
4.499999999999999
 70
   192
  0
VERTEX
  5
170
330
16E
100
AcDbEntity
  8
3D-GENM
100
AcDbVertex
100
AcDbPolyFaceMeshVertex
 10
-4.999999880790709
 20
-11.03124976158142
 30
4.499999999999999
 70
   192
  0
VERTEX
  5
171
330
16E
100
AcDbEntity
  8
3D-GENM
100
AcDbVertex
100
AcDbPolyFaceMeshVertex
 10
-4.999999880790709
 20
-12.12499952316284
 30
4.499999999999999
 70
   192
  0
VERTEX
  5
172
330
16E
100
AcDbEntity
  8
3D-GENM
100
AcDbVertex
100
AcDbPolyFaceMeshVertex
 10
4.999999880790709
 20
-12.12499952316284
 30
4.499999999999999
 70
   192
  0
VERTEX
  5
173
330
16E
100
AcDbEntity
  8
3D-GENM
100
AcDbFaceRecord
 10
0.0
 20
0.0
 30
0.0
 70
   128
 71
     1
 72
     2
 73
     3
 74
     4
  0
SEQEND
  5
174
330
16E
100
AcDbEntity
  8
3D-GENM
  0
POLYLINE
  5
175
330
7E
100
AcDbEntity
  8
3D-GENM
100
AcDbPolyFaceMesh
 66
     1
 10
0.0
 20
0.0
 30
0.0
 70
    64
 71
     4
 72
     1
1001
REVIT
1002
{
1070
     4
1000
5282
1002
}
1002
{
1070
     2
1000
-2000151
1002
}
  0
VERTEX
  5
176
330
175
100
AcDbEntity
  8
3D-GENM
100
AcDbVertex
100
AcDbPolyFaceMeshVertex
 10
4.999999880790709
 20
-11.03124976158142
 30
-0.0000000000012916
 70
   192
  0
VERTEX
  5
177
330
175
100
AcDbEntity
  8
3D-GENM
100
AcDbVertex
100
AcDbPolyFaceMeshVertex
 10
4.999999880790709
 20
-11.03124976158142
 30
4.499999999999999
 70
   192
  0
VERTEX
  5
178
330
175
100
AcDbEntity
  8
3D-GENM
100
AcDbVertex
100
AcDbPolyFaceMeshVertex
 10
4.999999880790709
 20
-12.12499952316284
 30
4.499999999999999
 70
   192
  0
VERTEX
  5
179
330
175
100
AcDbEntity
  8
3D-GENM
100
AcDbVertex
100
AcDbPolyFaceMeshVertex
 10
4.999999880790709
 20
-12.12499952316284
 30
-0.0000000000012916
 70
   192
  0
VERTEX
  5
17A
330
175
100
AcDbEntity
  8
3D-GENM
100
AcDbFaceRecord
 10
0.0
 20
0.0
 30
0.0
 70
   128
 71
     1
 72
     2
 73
     3
 74
     4
  0
SEQEND
  5
17B
330
175
100
AcDbEntity
  8
3D-GENM
  0
POLYLINE
  5
17C
330
7E
100
AcDbEntity
  8
3D-GENM
100
AcDbPolyFaceMesh
 66
     1
 10
0.0
 20
0.0
 30
0.0
 70
    64
 71
     4
 72
     1
1001
REVIT
1002
{
1070
     4
1000
5282
1002
}
1002
{
1070
     2
1000
-2000151
1002
}
  0
VERTEX
  5
17D
330
17C
100
AcDbEntity
  8
3D-GENM
100
AcDbVertex
100
AcDbPolyFaceMeshVertex
 10
-4.999999880790709
 20
-11.03124976158142
 30
0.000000000001147
 70
   192
  0
VERTEX
  5
17E
330
17C
100
AcDbEntity
  8
3D-GENM
100
AcDbVertex
100
AcDbPolyFaceMeshVertex
 10
4.999999880790709
 20
-11.03124976158142
 30
-0.0000000000012916
 70
   192
  0
VERTEX
  5
17F
330
17C
100
AcDbEntity
  8
3D-GENM
100
AcDbVertex
100
AcDbPolyFaceMeshVertex
 10
4.999999880790709
 20
-12.12499952316284
 30
-0.0000000000012916
 70
   192
  0
VERTEX
  5
180
330
17C
100
AcDbEntity
  8
3D-GENM
100
AcDbVertex
100
AcDbPolyFaceMeshVertex
 10
-4.999999880790709
 20
-12.12499952316284
 30
0.000000000001147
 70
   192
  0
VERTEX
  5
181
330
17C
100
AcDbEntity
  8
3D-GENM
100
AcDbFaceRecord
 10
0.0
 20
0.0
 30
0.0
 70
   128
 71
     1
 72
     2
 73
     3
 74
     4
  0
SEQEND
  5
182
330
17C
100
AcDbEntity
  8
3D-GENM
  0
POLYLINE
  5
183
330
7E
100
AcDbEntity
  8
3D-GENM
100
AcDbPolyFaceMesh
 66
     1
 10
0.0
 20
0.0
 30
0.0
 70
    64
 71
     6
 72
     3
1001
REVIT
1002
{
1070
     4
1000
5282
1002
}
1002
{
1070
     2
1000
-2000151
1002
}
  0
VERTEX
  5
184
330
183
100
AcDbEntity
  8
3D-GENM
100
AcDbVertex
100
AcDbPolyFaceMeshVertex
 10
3.937499999999999
 20
3.015569329261779
 30
3.876837015151977
 70
   192
  0
VERTEX
  5
185
330
183
100
AcDbEntity
  8
3D-GENM
100
AcDbVertex
100
AcDbPolyFaceMeshVertex
 10
3.937499999999999
 20
3.96874988079071
 30
4.000000119209288
 70
   192
  0
VERTEX
  5
186
330
183
100
AcDbEntity
  8
3D-GENM
100
AcDbVertex
100
AcDbPolyFaceMeshVertex
 10
3.937499999999999
 20
8.843750238418577
 30
4.000000119209288
 70
   192
  0
VERTEX
  5
187
330
183
100
AcDbEntity
  8
3D-GENM
100
AcDbVertex
100
AcDbPolyFaceMeshVertex
 10
3.937499999999999
 20
8.843750238418577
 30
5.249999999999999
 70
   192
  0
VERTEX
  5
188
330
183
100
AcDbEntity
  8
3D-GENM
100
AcDbVertex
100
AcDbPolyFaceMeshVertex
 10
3.937499999999999
 20
2.124999940395354
 30
5.249999999999999
 70
   192
  0
VERTEX
  5
189
330
183
100
AcDbEntity
  8
3D-GENM
100
AcDbVertex
100
AcDbPolyFaceMeshVertex
 10
3.937499999999999
 20
2.124999940395354
 30
3.515437960624694
 70
   192
  0
VERTEX
  5
18A
330
183
100
AcDbEntity
  8
3D-GENM
100
AcDbFaceRecord
 10
0.0
 20
0.0
 30
0.0
 70
   128
 71
     1
 72
     6
 73
    -5
  0
VERTEX
  5
18B
330
183
100
AcDbEntity
  8
3D-GENM
100
AcDbFaceRecord
 10
0.0
 20
0.0
 30
0.0
 70
   128
 71
     2
 72
    -1
 73
     5
 74
    -4
  0
VERTEX
  5
18C
330
183
100
AcDbEntity
  8
3D-GENM
100
AcDbFaceRecord
 10
0.0
 20
0.0
 30
0.0
 70
   128
 71
     4
 72
     3
 73
    -2
  0
SEQEND
  5
18D
330
183
100
AcDbEntity
  8
3D-GENM
  0
POLYLINE
  5
18E
330
7E
100
AcDbEntity
  8
3D-GENM
100
AcDbPolyFaceMesh
 66
     1
 10
0.0
 20
0.0
 30
0.0
 70
    64
 71
     6
 72
     3
1001
REVIT
1002
{
1070
     4
1000
5282
1002
}
1002
{
1070
     2
1000
-2000151
1002
}
  0
VERTEX
  5
18F
330
18E
100
AcDbEntity
  8
3D-GENM
100
AcDbVertex
100
AcDbPolyFaceMeshVertex
 10
-3.937499999999999
 20
3.96874988079071
 30
4.000000119209288
 70
   192
  0
VERTEX
  5
190
330
18E
100
AcDbEntity
  8
3D-GENM
100
AcDbVertex
100
AcDbPolyFaceMeshVertex
 10
-3.937499999999999
 20
3.015569329261779
 30
3.876837015151977
 70
   192
  0
VERTEX
  5
191
330
18E
100
AcDbEntity
  8
3D-GENM
100
AcDbVertex
100
AcDbPolyFaceMeshVertex
 10
-3.937499999999999
 20
2.124999940395354
 30
3.515437960624694
 70
   192
  0
VERTEX
  5
192
330
18E
100
AcDbEntity
  8
3D-GENM
100
AcDbVertex
100
AcDbPolyFaceMeshVertex
 10
-3.937499999999999
 20
2.124999940395354
 30
5.249999999999999
 70
   192
  0
VERTEX
  5
193
330
18E
100
AcDbEntity
  8
3D-GENM
100
AcDbVertex
100
AcDbPolyFaceMeshVertex
 10
-3.937499999999999
 20
8.843750238418577
 30
5.249999999999999
 70
   192
  0
VERTEX
  5
194
330
18E
100
AcDbEntity
  8
3D-GENM
100
AcDbVertex
100
AcDbPolyFaceMeshVertex
 10
-3.937499999999999
 20
8.843750238418577
 30
4.000000119209288
 70
   192
  0
VERTEX
  5
195
330
18E
100
AcDbEntity
  8
3D-GENM
100
AcDbFaceRecord
 10
0.0
 20
0.0
 30
0.0
 70
   128
 71
     1
 72
     6
 73
     5
 74
    -4
  0
VERTEX
  5
196
330
18E
100
AcDbEntity
  8
3D-GENM
100
AcDbFaceRecord
 10
0.0
 20
0.0
 30
0.0
 70
   128
 71
     4
 72
     3
 73
    -2
  0
VERTEX
  5
197
330
18E
100
AcDbEntity
  8
3D-GENM
100
AcDbFaceRecord
 10
0.0
 20
0.0
 30
0.0
 70
   128
 71
    -1
 72
    -4
 73
     2
  0
SEQEND
  5
198
330
18E
100
AcDbEntity
  8
3D-GENM
  0
POLYLINE
  5
199
330
7E
100
AcDbEntity
  8
3D-GENM
100
AcDbPolyFaceMesh
 66
     1
 10
0.0
 20
0.0
 30
0.0
 70
    64
 71
     4
 72
     1
1001
REVIT
1002
{
1070
     4
1000
5282
1002
}
1002
{
1070
     2
1000
-2000151
1002
}
  0
VERTEX
  5
19A
330
199
100
AcDbEntity
  8
3D-GENM
100
AcDbVertex
100
AcDbPolyFaceMeshVertex
 10
-3.937499999999999
 20
8.843750238418577
 30
4.000000119209288
 70
   192
  0
VERTEX
  5
19B
330
199
100
AcDbEntity
  8
3D-GENM
100
AcDbVertex
100
AcDbPolyFaceMeshVertex
 10
-3.937499999999999
 20
8.843750238418577
 30
5.249999999999999
 70
   192
  0
VERTEX
  5
19C
330
199
100
AcDbEntity
  8
3D-GENM
100
AcDbVertex
100
AcDbPolyFaceMeshVertex
 10
3.937499999999999
 20
8.843750238418577
 30
5.249999999999999
 70
   192
  0
VERTEX
  5
19D
330
199
100
AcDbEntity
  8
3D-GENM
100
AcDbVertex
100
AcDbPolyFaceMeshVertex
 10
3.937499999999999
 20
8.843750238418577
 30
4.000000119209288
 70
   192
  0
VERTEX
  5
19E
330
199
100
AcDbEntity
  8
3D-GENM
100
AcDbFaceRecord
 10
0.0
 20
0.0
 30
0.0
 70
   128
 71
     1
 72
     4
 73
     3
 74
     2
  0
SEQEND
  5
19F
330
199
100
AcDbEntity
  8
3D-GENM
  0
POLYLINE
  5
1A0
330
7E
100
AcDbEntity
  8
3D-GENM
100
AcDbPolyFaceMesh
 66
     1
 10
0.0
 20
0.0
 30
0.0
 70
    64
 71
     4
 72
     1
1001
REVIT
1002
{
1070
     4
1000
5282
1002
}
1002
{
1070
     2
1000
-2000151
1002
}
  0
VERTEX
  5
1A1
330
1A0
100
AcDbEntity
  8
3D-GENM
100
AcDbVertex
100
AcDbPolyFaceMeshVertex
 10
-3.937499999999999
 20
2.124999940395354
 30
5.249999999999999
 70
   192
  0
VERTEX
  5
1A2
330
1A0
100
AcDbEntity
  8
3D-GENM
100
AcDbVertex
100
AcDbPolyFaceMeshVertex
 10
-3.937499999999999
 20
2.124999940395354
 30
3.515437960624694
 70
   192
  0
VERTEX
  5
1A3
330
1A0
100
AcDbEntity
  8
3D-GENM
100
AcDbVertex
100
AcDbPolyFaceMeshVertex
 10
3.937499999999999
 20
2.124999940395354
 30
3.515437960624694
 70
   192
  0
VERTEX
  5
1A4
330
1A0
100
AcDbEntity
  8
3D-GENM
100
AcDbVertex
100
AcDbPolyFaceMeshVertex
 10
3.937499999999999
 20
2.124999940395354
 30
5.249999999999999
 70
   192
  0
VERTEX
  5
1A5
330
1A0
100
AcDbEntity
  8
3D-GENM
100
AcDbFaceRecord
 10
0.0
 20
0.0
 30
0.0
 70
   128
 71
     1
 72
     4
 73
     3
 74
     2
  0
SEQEND
  5
1A6
330
1A0
100
AcDbEntity
  8
3D-GENM
  0
ENDBLK
  5
1A8
330
7E
100
AcDbEntity
  8
0
100
AcDbBlockEnd
  0
BLOCK
  5
291
330
1AA
100
AcDbEntity
  8
0
100
AcDbBlockBegin
  2
FamilyGeomCombination_10825-_3D_
 70
     0
 10
0.0
 20
0.0
 30
0.0
  3
FamilyGeomCombination_10825-_3D_
  1

  0
POLYLINE
  5
1AB
330
1AA
100
AcDbEntity
  8
3D-GENM
100
AcDbPolyFaceMesh
 66
     1
 10
0.0
 20
0.0
 30
0.0
 70
    64
 71
     4
 72
     1
1001
REVIT
1002
{
1070
     4
1000
5282
1002
}
1002
{
1070
     2
1000
-2000151
1002
}
  0
VERTEX
  5
1AC
330
1AB
100
AcDbEntity
  8
3D-GENM
100
AcDbVertex
100
AcDbPolyFaceMeshVertex
 10
6.34374976158142
 20
-9.531249761581419
 30
-0.0000000000002036
 70
   192
  0
VERTEX
  5
1AD
330
1AB
100
AcDbEntity
  8
3D-GENM
100
AcDbVertex
100
AcDbPolyFaceMeshVertex
 10
6.34374976158142
 20
-9.531249761581419
 30
6.973456621170043
 70
   192
  0
VERTEX
  5
1AE
330
1AB
100
AcDbEntity
  8
3D-GENM
100
AcDbVertex
100
AcDbPolyFaceMeshVertex
 10
6.34374976158142
 20
-10.03125
 30
6.973456621170043
 70
   192
  0
VERTEX
  5
1AF
330
1AB
100
AcDbEntity
  8
3D-GENM
100
AcDbVertex
100
AcDbPolyFaceMeshVertex
 10
6.34374976158142
 20
-10.03125
 30
-0.0000000000002021
 70
   192
  0
VERTEX
  5
1B0
330
1AB
100
AcDbEntity
  8
3D-GENM
100
AcDbFaceRecord
 10
0.0
 20
0.0
 30
0.0
 70
   128
 71
     1
 72
     2
 73
     3
 74
     4
  0
SEQEND
  5
1B1
330
1AB
100
AcDbEntity
  8
3D-GENM
  0
POLYLINE
  5
1B2
330
1AA
100
AcDbEntity
  8
3D-GENM
100
AcDbPolyFaceMesh
 66
     1
 10
0.0
 20
0.0
 30
0.0
 70
    64
 71
     4
 72
     1
1001
REVIT
1002
{
1070
     4
1000
5282
1002
}
1002
{
1070
     2
1000
-2000151
1002
}
  0
VERTEX
  5
1B3
330
1B2
100
AcDbEntity
  8
3D-GENM
100
AcDbVertex
100
AcDbPolyFaceMeshVertex
 10
-6.34374976158142
 20
-9.531249761581419
 30
6.973456621170043
 70
   192
  0
VERTEX
  5
1B4
330
1B2
100
AcDbEntity
  8
3D-GENM
100
AcDbVertex
100
AcDbPolyFaceMeshVertex
 10
-6.34374976158142
 20
-9.531249761581419
 30
-0.0000000000000734
 70
   192
  0
VERTEX
  5
1B5
330
1B2
100
AcDbEntity
  8
3D-GENM
100
AcDbVertex
100
AcDbPolyFaceMeshVertex
 10
-6.34374976158142
 20
-10.03125
 30
-0.0000000000000718
 70
   192
  0
VERTEX
  5
1B6
330
1B2
100
AcDbEntity
  8
3D-GENM
100
AcDbVertex
100
AcDbPolyFaceMeshVertex
 10
-6.34374976158142
 20
-10.03125
 30
6.973456621170043
 70
   192
  0
VERTEX
  5
1B7
330
1B2
100
AcDbEntity
  8
3D-GENM
100
AcDbFaceRecord
 10
0.0
 20
0.0
 30
0.0
 70
   128
 71
     2
 72
     3
 73
     4
 74
     1
  0
SEQEND
  5
1B8
330
1B2
100
AcDbEntity
  8
3D-GENM
  0
POLYLINE
  5
1B9
330
1AA
100
AcDbEntity
  8
3D-GENM
100
AcDbPolyFaceMesh
 66
     1
 10
0.0
 20
0.0
 30
0.0
 70
    64
 71
     7
 72
     3
1001
REVIT
1002
{
1070
     4
1000
5282
1002
}
1002
{
1070
     2
1000
-2000151
1002
}
  0
VERTEX
  5
1BA
330
1B9
100
AcDbEntity
  8
3D-GENM
100
AcDbVertex
100
AcDbPolyFaceMeshVertex
 10
5.343749999999999
 20
-11.03124976158142
 30
7.333352565765379
 70
   192
  0
VERTEX
  5
1BB
330
1B9
100
AcDbEntity
  8
3D-GENM
100
AcDbVertex
100
AcDbPolyFaceMeshVertex
 10
2.677924096584319
 20
-11.03124976158142
 30
7.598854064941405
 70
   192
  0
VERTEX
  5
1BC
330
1B9
100
AcDbEntity
  8
3D-GENM
100
AcDbVertex
100
AcDbPolyFaceMeshVertex
 10
0.000000000000802
 20
-11.03124976158142
 30
7.687499999999999
 70
   192
  0
VERTEX
  5
1BD
330
1B9
100
AcDbEntity
  8
3D-GENM
100
AcDbVertex
100
AcDbPolyFaceMeshVertex
 10
-2.677924096584319
 20
-11.03124976158142
 30
7.598854064941405
 70
   192
  0
VERTEX
  5
1BE
330
1B9
100
AcDbEntity
  8
3D-GENM
100
AcDbVertex
100
AcDbPolyFaceMeshVertex
 10
-5.343749999999999
 20
-11.03124976158142
 30
7.333352565765379
 70
   192
  0
VERTEX
  5
1BF
330
1B9
100
AcDbEntity
  8
3D-GENM
100
AcDbVertex
100
AcDbPolyFaceMeshVertex
 10
-5.343749999999999
 20
-11.03124976158142
 30
-0.0000000000000786
 70
   192
  0
VERTEX
  5
1C0
330
1B9
100
AcDbEntity
  8
3D-GENM
100
AcDbVertex
100
AcDbPolyFaceMeshVertex
 10
5.343749999999999
 20
-11.03124976158142
 30
-0.0000000000001878
 70
   192
  0
VERTEX
  5
1C1
330
1B9
100
AcDbEntity
  8
3D-GENM
100
AcDbFaceRecord
 10
0.0
 20
0.0
 30
0.0
 70
   128
 71
     7
 72
     1
 73
     2
 74
    -3
  0
VERTEX
  5
1C2
330
1B9
100
AcDbEntity
  8
3D-GENM
100
AcDbFaceRecord
 10
0.0
 20
0.0
 30
0.0
 70
   128
 71
    -6
 72
     3
 73
     4
 74
     5
  0
VERTEX
  5
1C3
330
1B9
100
AcDbEntity
  8
3D-GENM
100
AcDbFaceRecord
 10
0.0
 20
0.0
 30
0.0
 70
   128
 71
    -3
 72
     6
 73
    -7
  0
SEQEND
  5
1C4
330
1B9
100
AcDbEntity
  8
3D-GENM
  0
POLYLINE
  5
1C5
330
1AA
100
AcDbEntity
  8
3D-GENM
100
AcDbPolyFaceMesh
 66
     1
 10
0.0
 20
0.0
 30
0.0
 70
    64
 71
    16
 72
     8
1001
REVIT
1002
{
1070
     4
1000
5282
1002
}
1002
{
1070
     2
1000
-2000151
1002
}
  0
VERTEX
  5
1C6
330
1C5
100
AcDbEntity
  8
3D-GENM
100
AcDbVertex
100
AcDbPolyFaceMeshVertex
 10
-6.34374976158142
 20
-9.531249761581419
 30
-0.0000000000000734
 70
   192
  0
VERTEX
  5
1C7
330
1C5
100
AcDbEntity
  8
3D-GENM
100
AcDbVertex
100
AcDbPolyFaceMeshVertex
 10
6.34374976158142
 20
-9.531249761581419
 30
-0.0000000000002037
 70
   192
  0
VERTEX
  5
1C8
330
1C5
100
AcDbEntity
  8
3D-GENM
100
AcDbVertex
100
AcDbPolyFaceMeshVertex
 10
6.34374976158142
 20
-10.03125
 30
-0.0000000000002021
 70
   192
  0
VERTEX
  5
1C9
330
1C5
100
AcDbEntity
  8
3D-GENM
100
AcDbVertex
100
AcDbPolyFaceMeshVertex
 10
6.309675693511962
 20
-10.29006886482238
 30
-0.0000000000002009
 70
   192
  0
VERTEX
  5
1CA
330
1C5
100
AcDbEntity
  8
3D-GENM
100
AcDbVertex
100
AcDbPolyFaceMeshVertex
 10
6.209775209426878
 20
-10.53125023841857
 30
-0.0000000000001991
 70
   192
  0
VERTEX
  5
1CB
330
1C5
100
AcDbEntity
  8
3D-GENM
100
AcDbVertex
100
AcDbPolyFaceMeshVertex
 10
6.050856828689574
 20
-10.73835682868957
 30
-0.0000000000001968
 70
   192
  0
VERTEX
  5
1CC
330
1C5
100
AcDbEntity
  8
3D-GENM
100
AcDbVertex
100
AcDbPolyFaceMeshVertex
 10
5.843749880790709
 20
-10.89727520942687
 30
-0.0000000000001942
 70
   192
  0
VERTEX
  5
1CD
330
1C5
100
AcDbEntity
  8
3D-GENM
100
AcDbVertex
100
AcDbPolyFaceMeshVertex
 10
5.602569222450255
 20
-10.99717569351196
 30
-0.0000000000001914
 70
   192
  0
VERTEX
  5
1CE
330
1C5
100
AcDbEntity
  8
3D-GENM
100
AcDbVertex
100
AcDbPolyFaceMeshVertex
 10
5.343749999999999
 20
-11.03124976158142
 30
-0.0000000000001886
 70
   192
  0
VERTEX
  5
1CF
330
1C5
100
AcDbEntity
  8
3D-GENM
100
AcDbVertex
100
AcDbPolyFaceMeshVertex
 10
-5.343749999999999
 20
-11.03124976158142
 30
-0.0000000000000788
 70
   192
  0
VERTEX
  5
1D0
330
1C5
100
AcDbEntity
  8
3D-GENM
100
AcDbVertex
100
AcDbPolyFaceMeshVertex
 10
-5.602569222450255
 20
-10.99717569351196
 30
-0.0000000000000763
 70
   192
  0
VERTEX
  5
1D1
330
1C5
100
AcDbEntity
  8
3D-GENM
100
AcDbVertex
100
AcDbPolyFaceMeshVertex
 10
-5.843749880790709
 20
-10.89727520942687
 30
-0.0000000000000741
 70
   192
  0
VERTEX
  5
1D2
330
1C5
100
AcDbEntity
  8
3D-GENM
100
AcDbVertex
100
AcDbPolyFaceMeshVertex
 10
-6.050856828689574
 20
-10.73835682868957
 30
-0.0000000000000725
 70
   192
  0
VERTEX
  5
1D3
330
1C5
100
AcDbEntity
  8
3D-GENM
100
AcDbVertex
100
AcDbPolyFaceMeshVertex
 10
-6.209775209426878
 20
-10.53125023841857
 30
-0.0000000000000715
 70
   192
  0
VERTEX
  5
1D4
330
1C5
100
AcDbEntity
  8
3D-GENM
100
AcDbVertex
100
AcDbPolyFaceMeshVertex
 10
-6.309675693511962
 20
-10.29006886482238
 30
-0.0000000000000713
 70
   192
  0
VERTEX
  5
1D5
330
1C5
100
AcDbEntity
  8
3D-GENM
100
AcDbVertex
100
AcDbPolyFaceMeshVertex
 10
-6.34374976158142
 20
-10.03125
 30
-0.0000000000000718
 70
   192
  0
VERTEX
  5
1D6
330
1C5
100
AcDbEntity
  8
3D-GENM
100
AcDbFaceRecord
 10
0.0
 20
0.0
 30
0.0
 70
   128
 71
     5
 72
     6
 73
     7
 74
    -8
  0
VERTEX
  5
1D7
330
1C5
100
AcDbEntity
  8
3D-GENM
100
AcDbFaceRecord
 10
0.0
 20
0.0
 30
0.0
 70
   128
 71
     8
 72
    -9
 73
    -3
 74
    -5
  0
VERTEX
  5
1D8
330
1C5
100
AcDbEntity
  8
3D-GENM
100
AcDbFaceRecord
 10
0.0
 20
0.0
 30
0.0
 70
   128
 71
     4
 72
    -5
 73
     3
  0
VERTEX
  5
1D9
330
1C5
100
AcDbEntity
  8
3D-GENM
100
AcDbFaceRecord
 10
0.0
 20
0.0
 30
0.0
 70
   128
 71
     2
 72
    -3
 73
    -9
 74
     1
  0
VERTEX
  5
1DA
330
1C5
100
AcDbEntity
  8
3D-GENM
100
AcDbFaceRecord
 10
0.0
 20
0.0
 30
0.0
 70
   128
 71
    10
 72
    11
 73
   -12
 74
   -15
  0
VERTEX
  5
1DB
330
1C5
100
AcDbEntity
  8
3D-GENM
100
AcDbFaceRecord
 10
0.0
 20
0.0
 30
0.0
 70
   128
 71
    12
 72
    13
 73
    14
 74
   -15
  0
VERTEX
  5
1DC
330
1C5
100
AcDbEntity
  8
3D-GENM
100
AcDbFaceRecord
 10
0.0
 20
0.0
 30
0.0
 70
   128
 71
   -10
 72
    15
 73
    16
 74
    -1
  0
VERTEX
  5
1DD
330
1C5
100
AcDbEntity
  8
3D-GENM
100
AcDbFaceRecord
 10
0.0
 20
0.0
 30
0.0
 70
   128
 71
   -10
 72
    -1
 73
     9
  0
SEQEND
  5
1DE
330
1C5
100
AcDbEntity
  8
3D-GENM
  0
POLYLINE
  5
1DF
330
1AA
100
AcDbEntity
  8
3D-GENM
100
AcDbPolyFaceMesh
 66
     1
 10
0.0
 20
0.0
 30
0.0
 70
    64
 71
    19
 72
     9
1001
REVIT
1002
{
1070
     4
1000
5282
1002
}
1002
{
1070
     2
1000
-2000151
1002
}
  0
VERTEX
  5
1E0
330
1DF
100
AcDbEntity
  8
3D-GENM
100
AcDbVertex
100
AcDbPolyFaceMeshVertex
 10
6.34374976158142
 20
-9.531249761581419
 30
-0.0000000000002036
 70
   192
  0
VERTEX
  5
1E1
330
1DF
100
AcDbEntity
  8
3D-GENM
100
AcDbVertex
100
AcDbPolyFaceMeshVertex
 10
-6.34374976158142
 20
-9.531249761581419
 30
-0.0000000000000733
 70
   192
  0
VERTEX
  5
1E2
330
1DF
100
AcDbEntity
  8
3D-GENM
100
AcDbVertex
100
AcDbPolyFaceMeshVertex
 10
-6.34374976158142
 20
-9.531249761581419
 30
6.973456621170043
 70
   192
  0
VERTEX
  5
1E3
330
1DF
100
AcDbEntity
  8
3D-GENM
100
AcDbVertex
100
AcDbPolyFaceMeshVertex
 10
-6.336793184280394
 20
-9.531249761581419
 30
7.032023906707762
 70
   192
  0
VERTEX
  5
1E4
330
1DF
100
AcDbEntity
  8
3D-GENM
100
AcDbVertex
100
AcDbPolyFaceMeshVertex
 10
-6.316309690475462
 20
-9.531249761581419
 30
7.087331056594847
 70
   192
  0
VERTEX
  5
1E5
330
1DF
100
AcDbEntity
  8
3D-GENM
100
AcDbVertex
100
AcDbPolyFaceMeshVertex
 10
-6.283439397811888
 20
-9.531249761581419
 30
7.136300325393675
 70
   192
  0
VERTEX
  5
1E6
330
1DF
100
AcDbEntity
  8
3D-GENM
100
AcDbVertex
100
AcDbPolyFaceMeshVertex
 10
-6.240011930465697
 20
-9.531249761581419
 30
7.176206588745116
 70
   192
  0
VERTEX
  5
1E7
330
1DF
100
AcDbEntity
  8
3D-GENM
100
AcDbVertex
100
AcDbPolyFaceMeshVertex
 10
-6.188444137573241
 20
-9.531249761581419
 30
7.204828977584837
 70
   192
  0
VERTEX
  5
1E8
330
1DF
100
AcDbEntity
  8
3D-GENM
100
AcDbVertex
100
AcDbPolyFaceMeshVertex
 10
-6.131605625152587
 20
-9.531249761581419
 30
7.220573902130126
 70
   192
  0
VERTEX
  5
1E9
330
1DF
100
AcDbEntity
  8
3D-GENM
100
AcDbVertex
100
AcDbPolyFaceMeshVertex
 10
-3.074679136276244
 20
-9.531249761581419
 30
7.570600032806395
 70
   192
  0
VERTEX
  5
1EA
330
1DF
100
AcDbEntity
  8
3D-GENM
100
AcDbVertex
100
AcDbPolyFaceMeshVertex
 10
0.0000000000005396
 20
-9.531249761581419
 30
7.687499999999999
 70
   192
  0
VERTEX
  5
1EB
330
1DF
100
AcDbEntity
  8
3D-GENM
100
AcDbVertex
100
AcDbPolyFaceMeshVertex
 10
3.074679136276244
 20
-9.531249761581419
 30
7.570600032806395
 70
   192
  0
VERTEX
  5
1EC
330
1DF
100
AcDbEntity
  8
3D-GENM
100
AcDbVertex
100
AcDbPolyFaceMeshVertex
 10
6.131605625152587
 20
-9.531249761581419
 30
7.220573902130126
 70
   192
  0
VERTEX
  5
1ED
330
1DF
100
AcDbEntity
  8
3D-GENM
100
AcDbVertex
100
AcDbPolyFaceMeshVertex
 10
6.188444137573241
 20
-9.531249761581419
 30
7.204828977584837
 70
   192
  0
VERTEX
  5
1EE
330
1DF
100
AcDbEntity
  8
3D-GENM
100
AcDbVertex
100
AcDbPolyFaceMeshVertex
 10
6.240011930465697
 20
-9.531249761581419
 30
7.176206588745116
 70
   192
  0
VERTEX
  5
1EF
330
1DF
100
AcDbEntity
  8
3D-GENM
100
AcDbVertex
100
AcDbPolyFaceMeshVertex
 10
6.283439397811888
 20
-9.531249761581419
 30
7.136300325393675
 70
   192
  0
VERTEX
  5
1F0
330
1DF
100
AcDbEntity
  8
3D-GENM
100
AcDbVertex
100
AcDbPolyFaceMeshVertex
 10
6.316309690475462
 20
-9.531249761581419
 30
7.087331056594847
 70
   192
  0
VERTEX
  5
1F1
330
1DF
100
AcDbEntity
  8
3D-GENM
100
AcDbVertex
100
AcDbPolyFaceMeshVertex
 10
6.336793184280394
 20
-9.531249761581419
 30
7.032023906707762
 70
   192
  0
VERTEX
  5
1F2
330
1DF
100
AcDbEntity
  8
3D-GENM
100
AcDbVertex
100
AcDbPolyFaceMeshVertex
 10
6.34374976158142
 20
-9.531249761581419
 30
6.973456621170043
 70
   192
  0
VERTEX
  5
1F3
330
1DF
100
AcDbEntity
  8
3D-GENM
100
AcDbFaceRecord
 10
0.0
 20
0.0
 30
0.0
 70
   128
 71
    18
 72
   -19
 73
   -13
 74
    17
  0
VERTEX
  5
1F4
330
1DF
100
AcDbEntity
  8
3D-GENM
100
AcDbFaceRecord
 10
0.0
 20
0.0
 30
0.0
 70
   128
 71
    19
 72
    -1
 73
    12
 74
   -13
  0
VERTEX
  5
1F5
330
1DF
100
AcDbEntity
  8
3D-GENM
100
AcDbFaceRecord
 10
0.0
 20
0.0
 30
0.0
 70
   128
 71
    15
 72
    16
 73
   -17
 74
   -13
  0
VERTEX
  5
1F6
330
1DF
100
AcDbEntity
  8
3D-GENM
100
AcDbFaceRecord
 10
0.0
 20
0.0
 30
0.0
 70
   128
 71
   -15
 72
    13
 73
    14
  0
VERTEX
  5
1F7
330
1DF
100
AcDbEntity
  8
3D-GENM
100
AcDbFaceRecord
 10
0.0
 20
0.0
 30
0.0
 70
   128
 71
    11
 72
   -12
 73
     1
 74
    -2
  0
VERTEX
  5
1F8
330
1DF
100
AcDbEntity
  8
3D-GENM
100
AcDbFaceRecord
 10
0.0
 20
0.0
 30
0.0
 70
   128
 71
     4
 72
    -5
 73
    -8
 74
     3
  0
VERTEX
  5
1F9
330
1DF
100
AcDbEntity
  8
3D-GENM
100
AcDbFaceRecord
 10
0.0
 20
0.0
 30
0.0
 70
   128
 71
     2
 72
    -3
 73
    10
 74
   -11
  0
VERTEX
  5
1FA
330
1DF
100
AcDbEntity
  8
3D-GENM
100
AcDbFaceRecord
 10
0.0
 20
0.0
 30
0.0
 70
   128
 71
     5
 72
     6
 73
     7
 74
    -8
  0
VERTEX
  5
1FB
330
1DF
100
AcDbEntity
  8
3D-GENM
100
AcDbFaceRecord
 10
0.0
 20
0.0
 30
0.0
 70
   128
 71
    -3
 72
     8
 73
     9
 74
   -10
  0
SEQEND
  5
1FC
330
1DF
100
AcDbEntity
  8
3D-GENM
  0
POLYLINE
  5
1FD
330
1AA
100
AcDbEntity
  8
3D-GENM
100
AcDbPolyFaceMesh
 66
     1
 10
0.0
 20
0.0
 30
0.0
 70
    64
 71
    14
 72
    12
1001
REVIT
1002
{
1070
     4
1000
5282
1002
}
1002
{
1070
     2
1000
-2000151
1002
}
  0
VERTEX
  5
1FE
330
1FD
100
AcDbEntity
  8
3D-GENM
100
AcDbVertex
100
AcDbPolyFaceMeshVertex
 10
-6.131605625152587
 20
-9.531249761581419
 30
7.220573902130126
 70
   192
  0
VERTEX
  5
1FF
330
1FD
100
AcDbEntity
  8
3D-GENM
100
AcDbVertex
100
AcDbPolyFaceMeshVertex
 10
-6.188444137573241
 20
-9.531249761581419
 30
7.204828977584837
 70
   192
  0
VERTEX
  5
200
330
1FD
100
AcDbEntity
  8
3D-GENM
100
AcDbVertex
100
AcDbPolyFaceMeshVertex
 10
-6.240011930465697
 20
-9.531249761581419
 30
7.176206588745116
 70
   192
  0
VERTEX
  5
201
330
1FD
100
AcDbEntity
  8
3D-GENM
100
AcDbVertex
100
AcDbPolyFaceMeshVertex
 10
-6.283439397811888
 20
-9.531249761581419
 30
7.136300325393675
 70
   192
  0
VERTEX
  5
202
330
1FD
100
AcDbEntity
  8
3D-GENM
100
AcDbVertex
100
AcDbPolyFaceMeshVertex
 10
-6.316309690475462
 20
-9.531249761581419
 30
7.087331056594847
 70
   192
  0
VERTEX
  5
203
330
1FD
100
AcDbEntity
  8
3D-GENM
100
AcDbVertex
100
AcDbPolyFaceMeshVertex
 10
-6.336793184280394
 20
-9.531249761581419
 30
7.032023906707762
 70
   192
  0
VERTEX
  5
204
330
1FD
100
AcDbEntity
  8
3D-GENM
100
AcDbVertex
100
AcDbPolyFaceMeshVertex
 10
-6.34374976158142
 20
-9.531249761581419
 30
6.973456621170043
 70
   192
  0
VERTEX
  5
205
330
1FD
100
AcDbEntity
  8
3D-GENM
100
AcDbVertex
100
AcDbPolyFaceMeshVertex
 10
-6.34374976158142
 20
-10.03125
 30
6.973456621170043
 70
   192
  0
VERTEX
  5
206
330
1FD
100
AcDbEntity
  8
3D-GENM
100
AcDbVertex
100
AcDbPolyFaceMeshVertex
 10
-6.331076145172118
 20
-10.18995237350464
 30
7.052045345306395
 70
   192
  0
VERTEX
  5
207
330
1FD
100
AcDbEntity
  8
3D-GENM
100
AcDbVertex
100
AcDbPolyFaceMeshVertex
 10
-6.292505264282225
 20
-10.347261428833
 30
7.125102281570433
 70
   192
  0
VERTEX
  5
208
330
1FD
100
AcDbEntity
  8
3D-GENM
100
AcDbVertex
100
AcDbPolyFaceMeshVertex
 10
-6.226383447647093
 20
-10.50131177902221
 30
7.185372591018675
 70
   192
  0
VERTEX
  5
209
330
1FD
100
AcDbEntity
  8
3D-GENM
100
AcDbVertex
100
AcDbPolyFaceMeshVertex
 10
-6.131605625152587
 20
-10.6471095085144
 30
7.220573902130126
 70
   192
  0
VERTEX
  5
20A
330
1FD
100
AcDbEntity
  8
3D-GENM
100
AcDbVertex
100
AcDbPolyFaceMeshVertex
 10
-6.131605625152587
 20
-10.21409726142883
 30
7.220573902130126
 70
   192
  0
VERTEX
  5
20B
330
1FD
100
AcDbEntity
  8
3D-GENM
100
AcDbVertex
100
AcDbPolyFaceMeshVertex
 10
-6.131605625152587
 20
-10.43060374259948
 30
7.220573902130126
 70
   192
  0
VERTEX
  5
20C
330
1FD
100
AcDbEntity
  8
3D-GENM
100
AcDbFaceRecord
 10
0.0
 20
0.0
 30
0.0
 70
   128
 71
     4
 72
    -5
 73
    -8
  0
VERTEX
  5
20D
330
1FD
100
AcDbEntity
  8
3D-GENM
100
AcDbFaceRecord
 10
0.0
 20
0.0
 30
0.0
 70
   128
 71
   -13
 72
     8
 73
    -9
  0
VERTEX
  5
20E
330
1FD
100
AcDbEntity
  8
3D-GENM
100
AcDbFaceRecord
 10
0.0
 20
0.0
 30
0.0
 70
   128
 71
    -8
 72
     6
 73
     7
  0
VERTEX
  5
20F
330
1FD
100
AcDbEntity
  8
3D-GENM
100
AcDbFaceRecord
 10
0.0
 20
0.0
 30
0.0
 70
   128
 71
    -6
 72
    -8
 73
     5
  0
VERTEX
  5
210
330
1FD
100
AcDbEntity
  8
3D-GENM
100
AcDbFaceRecord
 10
0.0
 20
0.0
 30
0.0
 70
   128
 71
    11
 72
    12
 73
   -14
  0
VERTEX
  5
211
330
1FD
100
AcDbEntity
  8
3D-GENM
100
AcDbFaceRecord
 10
0.0
 20
0.0
 30
0.0
 70
   128
 71
   -10
 72
   -13
 73
     9
  0
VERTEX
  5
212
330
1FD
100
AcDbEntity
  8
3D-GENM
100
AcDbFaceRecord
 10
0.0
 20
0.0
 30
0.0
 70
   128
 71
    14
 72
   -13
 73
   -10
  0
VERTEX
  5
213
330
1FD
100
AcDbEntity
  8
3D-GENM
100
AcDbFaceRecord
 10
0.0
 20
0.0
 30
0.0
 70
   128
 71
    -4
 72
    -8
 73
     3
  0
VERTEX
  5
214
330
1FD
100
AcDbEntity
  8
3D-GENM
100
AcDbFaceRecord
 10
0.0
 20
0.0
 30
0.0
 70
   128
 71
    10
 72
   -11
 73
   -14
  0
VERTEX
  5
215
330
1FD
100
AcDbEntity
  8
3D-GENM
100
AcDbFaceRecord
 10
0.0
 20
0.0
 30
0.0
 70
   128
 71
    -2
 72
    13
 73
     1
  0
VERTEX
  5
216
330
1FD
100
AcDbEntity
  8
3D-GENM
100
AcDbFaceRecord
 10
0.0
 20
0.0
 30
0.0
 70
   128
 71
     2
 72
    -3
 73
    -8
  0
VERTEX
  5
217
330
1FD
100
AcDbEntity
  8
3D-GENM
100
AcDbFaceRecord
 10
0.0
 20
0.0
 30
0.0
 70
   128
 71
   -13
 72
    -2
 73
    -8
  0
SEQEND
  5
218
330
1FD
100
AcDbEntity
  8
3D-GENM
  0
POLYLINE
  5
219
330
1AA
100
AcDbEntity
  8
3D-GENM
100
AcDbPolyFaceMesh
 66
     1
 10
0.0
 20
0.0
 30
0.0
 70
    64
 71
    16
 72
    14
1001
REVIT
1002
{
1070
     4
1000
5282
1002
}
1002
{
1070
     2
1000
-2000151
1002
}
  0
VERTEX
  5
21A
330
219
100
AcDbEntity
  8
3D-GENM
100
AcDbVertex
100
AcDbPolyFaceMeshVertex
 10
6.131605625152587
 20
-9.531249761581419
 30
7.220573902130126
 70
   192
  0
VERTEX
  5
21B
330
219
100
AcDbEntity
  8
3D-GENM
100
AcDbVertex
100
AcDbPolyFaceMeshVertex
 10
3.074679136276244
 20
-9.531249761581419
 30
7.570600032806395
 70
   192
  0
VERTEX
  5
21C
330
219
100
AcDbEntity
  8
3D-GENM
100
AcDbVertex
100
AcDbPolyFaceMeshVertex
 10
0.0000000000005401
 20
-9.531249761581419
 30
7.687499999999999
 70
   192
  0
VERTEX
  5
21D
330
219
100
AcDbEntity
  8
3D-GENM
100
AcDbVertex
100
AcDbPolyFaceMeshVertex
 10
-3.074679136276244
 20
-9.531249761581419
 30
7.570600032806395
 70
   192
  0
VERTEX
  5
21E
330
219
100
AcDbEntity
  8
3D-GENM
100
AcDbVertex
100
AcDbPolyFaceMeshVertex
 10
-6.131605625152587
 20
-9.531249761581419
 30
7.220573902130126
 70
   192
  0
VERTEX
  5
21F
330
219
100
AcDbEntity
  8
3D-GENM
100
AcDbVertex
100
AcDbPolyFaceMeshVertex
 10
-6.131605625152587
 20
-10.6471095085144
 30
7.220573902130126
 70
   192
  0
VERTEX
  5
220
330
219
100
AcDbEntity
  8
3D-GENM
100
AcDbVertex
100
AcDbPolyFaceMeshVertex
 10
-5.9125839471817
 20
-10.85370254516601
 30
7.253513574600218
 70
   192
  0
VERTEX
  5
221
330
219
100
AcDbEntity
  8
3D-GENM
100
AcDbVertex
100
AcDbPolyFaceMeshVertex
 10
-5.64170730113983
 20
-10.98582887649536
 30
7.292558670043944
 70
   192
  0
VERTEX
  5
222
330
219
100
AcDbEntity
  8
3D-GENM
100
AcDbVertex
100
AcDbPolyFaceMeshVertex
 10
-5.343749999999999
 20
-11.03124976158142
 30
7.333352565765379
 70
   192
  0
VERTEX
  5
223
330
219
100
AcDbEntity
  8
3D-GENM
100
AcDbVertex
100
AcDbPolyFaceMeshVertex
 10
-2.677924096584319
 20
-11.03124976158142
 30
7.598854064941405
 70
   192
  0
VERTEX
  5
224
330
219
100
AcDbEntity
  8
3D-GENM
100
AcDbVertex
100
AcDbPolyFaceMeshVertex
 10
0.0000000000002523
 20
-11.03124976158142
 30
7.687499999999999
 70
   192
  0
VERTEX
  5
225
330
219
100
AcDbEntity
  8
3D-GENM
100
AcDbVertex
100
AcDbPolyFaceMeshVertex
 10
2.677924096584319
 20
-11.03124976158142
 30
7.598854064941405
 70
   192
  0
VERTEX
  5
226
330
219
100
AcDbEntity
  8
3D-GENM
100
AcDbVertex
100
AcDbPolyFaceMeshVertex
 10
5.343749999999999
 20
-11.03124976158142
 30
7.333352565765379
 70
   192
  0
VERTEX
  5
227
330
219
100
AcDbEntity
  8
3D-GENM
100
AcDbVertex
100
AcDbPolyFaceMeshVertex
 10
5.64170730113983
 20
-10.98582887649536
 30
7.292558670043944
 70
   192
  0
VERTEX
  5
228
330
219
100
AcDbEntity
  8
3D-GENM
100
AcDbVertex
100
AcDbPolyFaceMeshVertex
 10
5.9125839471817
 20
-10.85370254516601
 30
7.253513574600218
 70
   192
  0
VERTEX
  5
229
330
219
100
AcDbEntity
  8
3D-GENM
100
AcDbVertex
100
AcDbPolyFaceMeshVertex
 10
6.131605625152587
 20
-10.6471095085144
 30
7.220573902130126
 70
   192
  0
VERTEX
  5
22A
330
219
100
AcDbEntity
  8
3D-GENM
100
AcDbFaceRecord
 10
0.0
 20
0.0
 30
0.0
 70
   128
 71
     7
 72
    -8
 73
   -10
  0
VERTEX
  5
22B
330
219
100
AcDbEntity
  8
3D-GENM
100
AcDbFaceRecord
 10
0.0
 20
0.0
 30
0.0
 70
   128
 71
     9
 72
   -10
 73
     8
  0
VERTEX
  5
22C
330
219
100
AcDbEntity
  8
3D-GENM
100
AcDbFaceRecord
 10
0.0
 20
0.0
 30
0.0
 70
   128
 71
    -7
 72
   -10
 73
     6
  0
VERTEX
  5
22D
330
219
100
AcDbEntity
  8
3D-GENM
100
AcDbFaceRecord
 10
0.0
 20
0.0
 30
0.0
 70
   128
 71
     5
 72
    -6
 73
     4
  0
VERTEX
  5
22E
330
219
100
AcDbEntity
  8
3D-GENM
100
AcDbFaceRecord
 10
0.0
 20
0.0
 30
0.0
 70
   128
 71
     3
 72
    -4
 73
    -6
  0
VERTEX
  5
22F
330
219
100
AcDbEntity
  8
3D-GENM
100
AcDbFaceRecord
 10
0.0
 20
0.0
 30
0.0
 70
   128
 71
    -3
 72
    -6
 73
   -11
  0
VERTEX
  5
230
330
219
100
AcDbEntity
  8
3D-GENM
100
AcDbFaceRecord
 10
0.0
 20
0.0
 30
0.0
 70
   128
 71
    -6
 72
    10
 73
   -11
  0
VERTEX
  5
231
330
219
100
AcDbEntity
  8
3D-GENM
100
AcDbFaceRecord
 10
0.0
 20
0.0
 30
0.0
 70
   128
 71
   -16
 72
    11
 73
   -12
  0
VERTEX
  5
232
330
219
100
AcDbEntity
  8
3D-GENM
100
AcDbFaceRecord
 10
0.0
 20
0.0
 30
0.0
 70
   128
 71
    13
 72
   -14
 73
    12
  0
VERTEX
  5
233
330
219
100
AcDbEntity
  8
3D-GENM
100
AcDbFaceRecord
 10
0.0
 20
0.0
 30
0.0
 70
   128
 71
   -15
 72
   -12
 73
    14
  0
VERTEX
  5
234
330
219
100
AcDbEntity
  8
3D-GENM
100
AcDbFaceRecord
 10
0.0
 20
0.0
 30
0.0
 70
   128
 71
   -16
 72
     2
 73
    -3
  0
VERTEX
  5
235
330
219
100
AcDbEntity
  8
3D-GENM
100
AcDbFaceRecord
 10
0.0
 20
0.0
 30
0.0
 70
   128
 71
   -16
 72
   -12
 73
    15
  0
VERTEX
  5
236
330
219
100
AcDbEntity
  8
3D-GENM
100
AcDbFaceRecord
 10
0.0
 20
0.0
 30
0.0
 70
   128
 71
    16
 72
     1
 73
    -2
  0
VERTEX
  5
237
330
219
100
AcDbEntity
  8
3D-GENM
100
AcDbFaceRecord
 10
0.0
 20
0.0
 30
0.0
 70
   128
 71
   -16
 72
    -3
 73
   -11
  0
SEQEND
  5
238
330
219
100
AcDbEntity
  8
3D-GENM
  0
POLYLINE
  5
239
330
1AA
100
AcDbEntity
  8
3D-GENM
100
AcDbPolyFaceMesh
 66
     1
 10
0.0
 20
0.0
 30
0.0
 70
    64
 71
    14
 72
    12
1001
REVIT
1002
{
1070
     4
1000
5282
1002
}
1002
{
1070
     2
1000
-2000151
1002
}
  0
VERTEX
  5
23A
330
239
100
AcDbEntity
  8
3D-GENM
100
AcDbVertex
100
AcDbPolyFaceMeshVertex
 10
6.34374976158142
 20
-9.531249761581419
 30
6.973456621170043
 70
   192
  0
VERTEX
  5
23B
330
239
100
AcDbEntity
  8
3D-GENM
100
AcDbVertex
100
AcDbPolyFaceMeshVertex
 10
6.336793184280394
 20
-9.531249761581419
 30
7.032023906707762
 70
   192
  0
VERTEX
  5
23C
330
239
100
AcDbEntity
  8
3D-GENM
100
AcDbVertex
100
AcDbPolyFaceMeshVertex
 10
6.316309690475462
 20
-9.531249761581419
 30
7.087331056594847
 70
   192
  0
VERTEX
  5
23D
330
239
100
AcDbEntity
  8
3D-GENM
100
AcDbVertex
100
AcDbPolyFaceMeshVertex
 10
6.283439397811888
 20
-9.531249761581419
 30
7.136300325393675
 70
   192
  0
VERTEX
  5
23E
330
239
100
AcDbEntity
  8
3D-GENM
100
AcDbVertex
100
AcDbPolyFaceMeshVertex
 10
6.240011930465697
 20
-9.531249761581419
 30
7.176206588745116
 70
   192
  0
VERTEX
  5
23F
330
239
100
AcDbEntity
  8
3D-GENM
100
AcDbVertex
100
AcDbPolyFaceMeshVertex
 10
6.188444137573241
 20
-9.531249761581419
 30
7.204828977584837
 70
   192
  0
VERTEX
  5
240
330
239
100
AcDbEntity
  8
3D-GENM
100
AcDbVertex
100
AcDbPolyFaceMeshVertex
 10
6.131605625152587
 20
-9.531249761581419
 30
7.220573902130126
 70
   192
  0
VERTEX
  5
241
330
239
100
AcDbEntity
  8
3D-GENM
100
AcDbVertex
100
AcDbPolyFaceMeshVertex
 10
6.131605625152587
 20
-10.6471095085144
 30
7.220573902130126
 70
   192
  0
VERTEX
  5
242
330
239
100
AcDbEntity
  8
3D-GENM
100
AcDbVertex
100
AcDbPolyFaceMeshVertex
 10
6.226383447647093
 20
-10.50131177902221
 30
7.185372591018675
 70
   192
  0
VERTEX
  5
243
330
239
100
AcDbEntity
  8
3D-GENM
100
AcDbVertex
100
AcDbPolyFaceMeshVertex
 10
6.292505264282225
 20
-10.347261428833
 30
7.125102281570433
 70
   192
  0
VERTEX
  5
244
330
239
100
AcDbEntity
  8
3D-GENM
100
AcDbVertex
100
AcDbPolyFaceMeshVertex
 10
6.331076145172118
 20
-10.18995237350464
 30
7.052045345306395
 70
   192
  0
VERTEX
  5
245
330
239
100
AcDbEntity
  8
3D-GENM
100
AcDbVertex
100
AcDbPolyFaceMeshVertex
 10
6.34374976158142
 20
-10.03125
 30
6.973456621170043
 70
   192
  0
VERTEX
  5
246
330
239
100
AcDbEntity
  8
3D-GENM
100
AcDbVertex
100
AcDbPolyFaceMeshVertex
 10
6.131605625152587
 20
-10.21409726142883
 30
7.220573902130126
 70
   192
  0
VERTEX
  5
247
330
239
100
AcDbEntity
  8
3D-GENM
100
AcDbVertex
100
AcDbPolyFaceMeshVertex
 10
6.131605625152587
 20
-10.43060374259948
 30
7.220573902130126
 70
   192
  0
VERTEX
  5
248
330
239
100
AcDbEntity
  8
3D-GENM
100
AcDbFaceRecord
 10
0.0
 20
0.0
 30
0.0
 70
   128
 71
     8
 72
    -9
 73
    14
  0
VERTEX
  5
249
330
239
100
AcDbEntity
  8
3D-GENM
100
AcDbFaceRecord
 10
0.0
 20
0.0
 30
0.0
 70
   128
 71
     7
 72
   -13
 73
     6
  0
VERTEX
  5
24A
330
239
100
AcDbEntity
  8
3D-GENM
100
AcDbFaceRecord
 10
0.0
 20
0.0
 30
0.0
 70
   128
 71
    13
 72
   -14
 73
   -10
  0
VERTEX
  5
24B
330
239
100
AcDbEntity
  8
3D-GENM
100
AcDbFaceRecord
 10
0.0
 20
0.0
 30
0.0
 70
   128
 71
    -6
 72
   -12
 73
     5
  0
VERTEX
  5
24C
330
239
100
AcDbEntity
  8
3D-GENM
100
AcDbFaceRecord
 10
0.0
 20
0.0
 30
0.0
 70
   128
 71
     4
 72
    -5
 73
   -12
  0
VERTEX
  5
24D
330
239
100
AcDbEntity
  8
3D-GENM
100
AcDbFaceRecord
 10
0.0
 20
0.0
 30
0.0
 70
   128
 71
   -11
 72
   -13
 73
    10
  0
VERTEX
  5
24E
330
239
100
AcDbEntity
  8
3D-GENM
100
AcDbFaceRecord
 10
0.0
 20
0.0
 30
0.0
 70
   128
 71
   -10
 72
   -14
 73
     9
  0
VERTEX
  5
24F
330
239
100
AcDbEntity
  8
3D-GENM
100
AcDbFaceRecord
 10
0.0
 20
0.0
 30
0.0
 70
   128
 71
    -6
 72
   -13
 73
   -12
  0
VERTEX
  5
250
330
239
100
AcDbEntity
  8
3D-GENM
100
AcDbFaceRecord
 10
0.0
 20
0.0
 30
0.0
 70
   128
 71
    -4
 72
   -12
 73
     3
  0
VERTEX
  5
251
330
239
100
AcDbEntity
  8
3D-GENM
100
AcDbFaceRecord
 10
0.0
 20
0.0
 30
0.0
 70
   128
 71
   -12
 72
     2
 73
    -3
  0
VERTEX
  5
252
330
239
100
AcDbEntity
  8
3D-GENM
100
AcDbFaceRecord
 10
0.0
 20
0.0
 30
0.0
 70
   128
 71
    -2
 72
    12
 73
     1
  0
VERTEX
  5
253
330
239
100
AcDbEntity
  8
3D-GENM
100
AcDbFaceRecord
 10
0.0
 20
0.0
 30
0.0
 70
   128
 71
   -13
 72
    11
 73
   -12
  0
SEQEND
  5
254
330
239
100
AcDbEntity
  8
3D-GENM
  0
POLYLINE
  5
255
330
1AA
100
AcDbEntity
  8
3D-GENM
100
AcDbPolyFaceMesh
 66
     1
 10
0.0
 20
0.0
 30
0.0
 70
    64
 71
    15
 72
    13
1001
REVIT
1002
{
1070
     4
1000
5282
1002
}
1002
{
1070
     2
1000
-2000151
1002
}
  0
VERTEX
  5
256
330
255
100
AcDbEntity
  8
3D-GENM
100
AcDbVertex
100
AcDbPolyFaceMeshVertex
 10
-6.34374976158142
 20
-10.03125
 30
6.973456621170043
 70
   192
  0
VERTEX
  5
257
330
255
100
AcDbEntity
  8
3D-GENM
100
AcDbVertex
100
AcDbPolyFaceMeshVertex
 10
-6.34374976158142
 20
-10.03125
 30
-0.0000000000000718
 70
   192
  0
VERTEX
  5
258
330
255
100
AcDbEntity
  8
3D-GENM
100
AcDbVertex
100
AcDbPolyFaceMeshVertex
 10
-6.309675693511962
 20
-10.29006886482238
 30
-0.0000000000000713
 70
   192
  0
VERTEX
  5
259
330
255
100
AcDbEntity
  8
3D-GENM
100
AcDbVertex
100
AcDbPolyFaceMeshVertex
 10
-6.209775209426878
 20
-10.53125023841857
 30
-0.0000000000000715
 70
   192
  0
VERTEX
  5
25A
330
255
100
AcDbEntity
  8
3D-GENM
100
AcDbVertex
100
AcDbPolyFaceMeshVertex
 10
-6.050856828689574
 20
-10.73835682868957
 30
-0.0000000000000725
 70
   192
  0
VERTEX
  5
25B
330
255
100
AcDbEntity
  8
3D-GENM
100
AcDbVertex
100
AcDbPolyFaceMeshVertex
 10
-5.843749880790709
 20
-10.89727520942687
 30
-0.0000000000000741
 70
   192
  0
VERTEX
  5
25C
330
255
100
AcDbEntity
  8
3D-GENM
100
AcDbVertex
100
AcDbPolyFaceMeshVertex
 10
-5.602569222450255
 20
-10.99717569351196
 30
-0.0000000000000763
 70
   192
  0
VERTEX
  5
25D
330
255
100
AcDbEntity
  8
3D-GENM
100
AcDbVertex
100
AcDbPolyFaceMeshVertex
 10
-5.343749999999999
 20
-11.03124976158142
 30
-0.0000000000000789
 70
   192
  0
VERTEX
  5
25E
330
255
100
AcDbEntity
  8
3D-GENM
100
AcDbVertex
100
AcDbPolyFaceMeshVertex
 10
-5.343749999999999
 20
-11.03124976158142
 30
7.333352565765379
 70
   192
  0
VERTEX
  5
25F
330
255
100
AcDbEntity
  8
3D-GENM
100
AcDbVertex
100
AcDbPolyFaceMeshVertex
 10
-5.64170730113983
 20
-10.98582887649536
 30
7.292558670043944
 70
   192
  0
VERTEX
  5
260
330
255
100
AcDbEntity
  8
3D-GENM
100
AcDbVertex
100
AcDbPolyFaceMeshVertex
 10
-5.9125839471817
 20
-10.85370254516601
 30
7.253513574600218
 70
   192
  0
VERTEX
  5
261
330
255
100
AcDbEntity
  8
3D-GENM
100
AcDbVertex
100
AcDbPolyFaceMeshVertex
 10
-6.131605625152587
 20
-10.6471095085144
 30
7.220573902130126
 70
   192
  0
VERTEX
  5
262
330
255
100
AcDbEntity
  8
3D-GENM
100
AcDbVertex
100
AcDbPolyFaceMeshVertex
 10
-6.226383447647093
 20
-10.50131177902221
 30
7.185372591018675
 70
   192
  0
VERTEX
  5
263
330
255
100
AcDbEntity
  8
3D-GENM
100
AcDbVertex
100
AcDbPolyFaceMeshVertex
 10
-6.292505264282225
 20
-10.347261428833
 30
7.125102281570433
 70
   192
  0
VERTEX
  5
264
330
255
100
AcDbEntity
  8
3D-GENM
100
AcDbVertex
100
AcDbPolyFaceMeshVertex
 10
-6.331076145172118
 20
-10.18995237350464
 30
7.052045345306395
 70
   192
  0
VERTEX
  5
265
330
255
100
AcDbEntity
  8
3D-GENM
100
AcDbFaceRecord
 10
0.0
 20
0.0
 30
0.0
 70
   128
 71
    10
 72
   -11
 73
    -6
  0
VERTEX
  5
266
330
255
100
AcDbEntity
  8
3D-GENM
100
AcDbFaceRecord
 10
0.0
 20
0.0
 30
0.0
 70
   128
 71
     9
 72
   -10
 73
    -7
  0
VERTEX
  5
267
330
255
100
AcDbEntity
  8
3D-GENM
100
AcDbFaceRecord
 10
0.0
 20
0.0
 30
0.0
 70
   128
 71
     8
 72
    -9
 73
     7
  0
VERTEX
  5
268
330
255
100
AcDbEntity
  8
3D-GENM
100
AcDbFaceRecord
 10
0.0
 20
0.0
 30
0.0
 70
   128
 71
    -7
 72
   -10
 73
     6
  0
VERTEX
  5
269
330
255
100
AcDbEntity
  8
3D-GENM
100
AcDbFaceRecord
 10
0.0
 20
0.0
 30
0.0
 70
   128
 71
   -11
 72
     5
 73
    -6
  0
VERTEX
  5
26A
330
255
100
AcDbEntity
  8
3D-GENM
100
AcDbFaceRecord
 10
0.0
 20
0.0
 30
0.0
 70
   128
 71
    11
 72
   -12
 73
    -5
  0
VERTEX
  5
26B
330
255
100
AcDbEntity
  8
3D-GENM
100
AcDbFaceRecord
 10
0.0
 20
0.0
 30
0.0
 70
   128
 71
    -4
 72
    12
 73
   -13
  0
VERTEX
  5
26C
330
255
100
AcDbEntity
  8
3D-GENM
100
AcDbFaceRecord
 10
0.0
 20
0.0
 30
0.0
 70
   128
 71
    -4
 72
    13
 73
   -14
  0
VERTEX
  5
26D
330
255
100
AcDbEntity
  8
3D-GENM
100
AcDbFaceRecord
 10
0.0
 20
0.0
 30
0.0
 70
   128
 71
    -3
 72
    14
 73
   -15
  0
VERTEX
  5
26E
330
255
100
AcDbEntity
  8
3D-GENM
100
AcDbFaceRecord
 10
0.0
 20
0.0
 30
0.0
 70
   128
 71
    -4
 72
   -14
 73
     3
  0
VERTEX
  5
26F
330
255
100
AcDbEntity
  8
3D-GENM
100
AcDbFaceRecord
 10
0.0
 20
0.0
 30
0.0
 70
   128
 71
     2
 72
    -3
 73
   -15
  0
VERTEX
  5
270
330
255
100
AcDbEntity
  8
3D-GENM
100
AcDbFaceRecord
 10
0.0
 20
0.0
 30
0.0
 70
   128
 71
     1
 72
    -2
 73
    15
  0
VERTEX
  5
271
330
255
100
AcDbEntity
  8
3D-GENM
100
AcDbFaceRecord
 10
0.0
 20
0.0
 30
0.0
 70
   128
 71
   -12
 72
     4
 73
    -5
  0
SEQEND
  5
272
330
255
100
AcDbEntity
  8
3D-GENM
  0
POLYLINE
  5
273
330
1AA
100
AcDbEntity
  8
3D-GENM
100
AcDbPolyFaceMesh
 66
     1
 10
0.0
 20
0.0
 30
0.0
 70
    64
 71
    15
 72
    13
1001
REVIT
1002
{
1070
     4
1000
5282
1002
}
1002
{
1070
     2
1000
-2000151
1002
}
  0
VERTEX
  5
274
330
273
100
AcDbEntity
  8
3D-GENM
100
AcDbVertex
100
AcDbPolyFaceMeshVertex
 10
6.34374976158142
 20
-10.03125
 30
-0.0000000000002021
 70
   192
  0
VERTEX
  5
275
330
273
100
AcDbEntity
  8
3D-GENM
100
AcDbVertex
100
AcDbPolyFaceMeshVertex
 10
6.34374976158142
 20
-10.03125
 30
6.973456621170043
 70
   192
  0
VERTEX
  5
276
330
273
100
AcDbEntity
  8
3D-GENM
100
AcDbVertex
100
AcDbPolyFaceMeshVertex
 10
6.331076145172118
 20
-10.18995237350464
 30
7.052045345306395
 70
   192
  0
VERTEX
  5
277
330
273
100
AcDbEntity
  8
3D-GENM
100
AcDbVertex
100
AcDbPolyFaceMeshVertex
 10
6.292505264282225
 20
-10.347261428833
 30
7.125102281570433
 70
   192
  0
VERTEX
  5
278
330
273
100
AcDbEntity
  8
3D-GENM
100
AcDbVertex
100
AcDbPolyFaceMeshVertex
 10
6.226383447647093
 20
-10.50131177902221
 30
7.185372591018675
 70
   192
  0
VERTEX
  5
279
330
273
100
AcDbEntity
  8
3D-GENM
100
AcDbVertex
100
AcDbPolyFaceMeshVertex
 10
6.131605625152587
 20
-10.6471095085144
 30
7.220573902130126
 70
   192
  0
VERTEX
  5
27A
330
273
100
AcDbEntity
  8
3D-GENM
100
AcDbVertex
100
AcDbPolyFaceMeshVertex
 10
5.9125839471817
 20
-10.85370254516601
 30
7.253513574600218
 70
   192
  0
VERTEX
  5
27B
330
273
100
AcDbEntity
  8
3D-GENM
100
AcDbVertex
100
AcDbPolyFaceMeshVertex
 10
5.64170730113983
 20
-10.98582887649536
 30
7.292558670043944
 70
   192
  0
VERTEX
  5
27C
330
273
100
AcDbEntity
  8
3D-GENM
100
AcDbVertex
100
AcDbPolyFaceMeshVertex
 10
5.343749999999999
 20
-11.03124976158142
 30
7.333352565765379
 70
   192
  0
VERTEX
  5
27D
330
273
100
AcDbEntity
  8
3D-GENM
100
AcDbVertex
100
AcDbPolyFaceMeshVertex
 10
5.343749999999999
 20
-11.03124976158142
 30
-0.0000000000001886
 70
   192
  0
VERTEX
  5
27E
330
273
100
AcDbEntity
  8
3D-GENM
100
AcDbVertex
100
AcDbPolyFaceMeshVertex
 10
5.602569222450255
 20
-10.99717569351196
 30
-0.0000000000001914
 70
   192
  0
VERTEX
  5
27F
330
273
100
AcDbEntity
  8
3D-GENM
100
AcDbVertex
100
AcDbPolyFaceMeshVertex
 10
5.843749880790709
 20
-10.89727520942687
 30
-0.0000000000001942
 70
   192
  0
VERTEX
  5
280
330
273
100
AcDbEntity
  8
3D-GENM
100
AcDbVertex
100
AcDbPolyFaceMeshVertex
 10
6.050856828689574
 20
-10.73835682868957
 30
-0.0000000000001968
 70
   192
  0
VERTEX
  5
281
330
273
100
AcDbEntity
  8
3D-GENM
100
AcDbVertex
100
AcDbPolyFaceMeshVertex
 10
6.209775209426878
 20
-10.53125023841857
 30
-0.0000000000001991
 70
   192
  0
VERTEX
  5
282
330
273
100
AcDbEntity
  8
3D-GENM
100
AcDbVertex
100
AcDbPolyFaceMeshVertex
 10
6.309675693511962
 20
-10.29006886482238
 30
-0.0000000000002009
 70
   192
  0
VERTEX
  5
283
330
273
100
AcDbEntity
  8
3D-GENM
100
AcDbFaceRecord
 10
0.0
 20
0.0
 30
0.0
 70
   128
 71
   -15
 72
     3
 73
    -4
  0
VERTEX
  5
284
330
273
100
AcDbEntity
  8
3D-GENM
100
AcDbFaceRecord
 10
0.0
 20
0.0
 30
0.0
 70
   128
 71
   -14
 72
     4
 73
    -5
  0
VERTEX
  5
285
330
273
100
AcDbEntity
  8
3D-GENM
100
AcDbFaceRecord
 10
0.0
 20
0.0
 30
0.0
 70
   128
 71
     2
 72
    -3
 73
     1
  0
VERTEX
  5
286
330
273
100
AcDbEntity
  8
3D-GENM
100
AcDbFaceRecord
 10
0.0
 20
0.0
 30
0.0
 70
   128
 71
    -1
 72
    -3
 73
    15
  0
VERTEX
  5
287
330
273
100
AcDbEntity
  8
3D-GENM
100
AcDbFaceRecord
 10
0.0
 20
0.0
 30
0.0
 70
   128
 71
    -4
 72
    14
 73
   -15
  0
VERTEX
  5
288
330
273
100
AcDbEntity
  8
3D-GENM
100
AcDbFaceRecord
 10
0.0
 20
0.0
 30
0.0
 70
   128
 71
     5
 72
    -6
 73
   -14
  0
VERTEX
  5
289
330
273
100
AcDbEntity
  8
3D-GENM
100
AcDbFaceRecord
 10
0.0
 20
0.0
 30
0.0
 70
   128
 71
     6
 72
    -7
 73
   -13
  0
VERTEX
  5
28A
330
273
100
AcDbEntity
  8
3D-GENM
100
AcDbFaceRecord
 10
0.0
 20
0.0
 30
0.0
 70
   128
 71
     8
 72
    -9
 73
   -11
  0
VERTEX
  5
28B
330
273
100
AcDbEntity
  8
3D-GENM
100
AcDbFaceRecord
 10
0.0
 20
0.0
 30
0.0
 70
   128
 71
     7
 72
    -8
 73
   -12
  0
VERTEX
  5
28C
330
273
100
AcDbEntity
  8
3D-GENM
100
AcDbFaceRecord
 10
0.0
 20
0.0
 30
0.0
 70
   128
 71
   -13
 72
    -7
 73
    12
  0
VERTEX
  5
28D
330
273
100
AcDbEntity
  8
3D-GENM
100
AcDbFaceRecord
 10
0.0
 20
0.0
 30
0.0
 70
   128
 71
   -12
 72
    -8
 73
    11
  0
VERTEX
  5
28E
330
273
100
AcDbEntity
  8
3D-GENM
100
AcDbFaceRecord
 10
0.0
 20
0.0
 30
0.0
 70
   128
 71
     9
 72
    10
 73
   -11
  0
VERTEX
  5
28F
330
273
100
AcDbEntity
  8
3D-GENM
100
AcDbFaceRecord
 10
0.0
 20
0.0
 30
0.0
 70
   128
 71
    -6
 72
    13
 73
   -14
  0
SEQEND
  5
290
330
273
100
AcDbEntity
  8
3D-GENM
  0
ENDBLK
  5
292
330
1AA
100
AcDbEntity
  8
0
100
AcDbBlockEnd
  0
BLOCK
  5
3D9
330
294
100
AcDbEntity
  8
0
100
AcDbBlockBegin
  2
FamilyGeomCombination_11304-_3D_
 70
     0
 10
0.0
 20
0.0
 30
0.0
  3
FamilyGeomCombination_11304-_3D_
  1

  0
POLYLINE
  5
295
330
294
100
AcDbEntity
  8
3D-GENM
100
AcDbPolyFaceMesh
 66
     1
 10
0.0
 20
0.0
 30
0.0
 70
    64
 71
     4
 72
     1
1001
REVIT
1002
{
1070
     4
1000
5277
1002
}
1002
{
1070
     2
1000
-2000151
1002
}
  0
VERTEX
  5
296
330
295
100
AcDbEntity
  8
3D-GENM
100
AcDbVertex
100
AcDbPolyFaceMeshVertex
 10
6.34374976158142
 20
-9.531249761581419
 30
6.973456621170043
 70
   192
  0
VERTEX
  5
297
330
295
100
AcDbEntity
  8
3D-GENM
100
AcDbVertex
100
AcDbPolyFaceMeshVertex
 10
6.34374976158142
 20
-9.531249761581419
 30
5.249999999999999
 70
   192
  0
VERTEX
  5
298
330
295
100
AcDbEntity
  8
3D-GENM
100
AcDbVertex
100
AcDbPolyFaceMeshVertex
 10
6.34374976158142
 20
9.281249999999998
 30
5.249999999999999
 70
   192
  0
VERTEX
  5
299
330
295
100
AcDbEntity
  8
3D-GENM
100
AcDbVertex
100
AcDbPolyFaceMeshVertex
 10
6.34374976158142
 20
9.281249999999998
 30
6.973456621170043
 70
   192
  0
VERTEX
  5
29A
330
295
100
AcDbEntity
  8
3D-GENM
100
AcDbFaceRecord
 10
0.0
 20
0.0
 30
0.0
 70
   128
 71
     1
 72
     2
 73
     3
 74
     4
  0
SEQEND
  5
29B
330
295
100
AcDbEntity
  8
3D-GENM
  0
POLYLINE
  5
29C
330
294
100
AcDbEntity
  8
3D-GENM
100
AcDbPolyFaceMesh
 66
     1
 10
0.0
 20
0.0
 30
0.0
 70
    64
 71
     4
 72
     1
1001
REVIT
1002
{
1070
     4
1000
5277
1002
}
1002
{
1070
     2
1000
-2000151
1002
}
  0
VERTEX
  5
29D
330
29C
100
AcDbEntity
  8
3D-GENM
100
AcDbVertex
100
AcDbPolyFaceMeshVertex
 10
-6.34374976158142
 20
-9.531249761581419
 30
5.249999999999999
 70
   192
  0
VERTEX
  5
29E
330
29C
100
AcDbEntity
  8
3D-GENM
100
AcDbVertex
100
AcDbPolyFaceMeshVertex
 10
-6.34374976158142
 20
-9.531249761581419
 30
6.973456621170043
 70
   192
  0
VERTEX
  5
29F
330
29C
100
AcDbEntity
  8
3D-GENM
100
AcDbVertex
100
AcDbPolyFaceMeshVertex
 10
-6.34374976158142
 20
9.281249999999998
 30
6.973456621170043
 70
   192
  0
VERTEX
  5
2A0
330
29C
100
AcDbEntity
  8
3D-GENM
100
AcDbVertex
100
AcDbPolyFaceMeshVertex
 10
-6.34374976158142
 20
9.281249999999998
 30
5.249999999999999
 70
   192
  0
VERTEX
  5
2A1
330
29C
100
AcDbEntity
  8
3D-GENM
100
AcDbFaceRecord
 10
0.0
 20
0.0
 30
0.0
 70
   128
 71
     2
 72
     3
 73
     4
 74
     1
  0
SEQEND
  5
2A2
330
29C
100
AcDbEntity
  8
3D-GENM
  0
POLYLINE
  5
2A3
330
294
100
AcDbEntity
  8
3D-GENM
100
AcDbPolyFaceMesh
 66
     1
 10
0.0
 20
0.0
 30
0.0
 70
    64
 71
    20
 72
    12
1001
REVIT
1002
{
1070
     4
1000
5277
1002
}
1002
{
1070
     2
1000
-2000151
1002
}
  0
VERTEX
  5
2A4
330
2A3
100
AcDbEntity
  8
3D-GENM
100
AcDbVertex
100
AcDbPolyFaceMeshVertex
 10
6.34374976158142
 20
-9.531249761581419
 30
5.249999999999999
 70
   192
  0
VERTEX
  5
2A5
330
2A3
100
AcDbEntity
  8
3D-GENM
100
AcDbVertex
100
AcDbPolyFaceMeshVertex
 10
-6.34374976158142
 20
-9.531249761581419
 30
5.249999999999999
 70
   192
  0
VERTEX
  5
2A6
330
2A3
100
AcDbEntity
  8
3D-GENM
100
AcDbVertex
100
AcDbPolyFaceMeshVertex
 10
-6.34374976158142
 20
9.281249999999998
 30
5.249999999999999
 70
   192
  0
VERTEX
  5
2A7
330
2A3
100
AcDbEntity
  8
3D-GENM
100
AcDbVertex
100
AcDbPolyFaceMeshVertex
 10
-6.284120321273802
 20
9.734183549880979
 30
5.249999999999999
 70
   192
  0
VERTEX
  5
2A8
330
2A3
100
AcDbEntity
  8
3D-GENM
100
AcDbVertex
100
AcDbPolyFaceMeshVertex
 10
-6.109294652938841
 20
10.15625023841858
 30
5.249999999999999
 70
   192
  0
VERTEX
  5
2A9
330
2A3
100
AcDbEntity
  8
3D-GENM
100
AcDbVertex
100
AcDbPolyFaceMeshVertex
 10
-5.831186771392821
 20
10.51868677139282
 30
5.249999999999999
 70
   192
  0
VERTEX
  5
2AA
330
2A3
100
AcDbEntity
  8
3D-GENM
100
AcDbVertex
100
AcDbPolyFaceMeshVertex
 10
-5.468749880790709
 20
10.79679465293884
 30
5.249999999999999
 70
   192
  0
VERTEX
  5
2AB
330
2A3
100
AcDbEntity
  8
3D-GENM
100
AcDbVertex
100
AcDbPolyFaceMeshVertex
 10
-5.046683192253111
 20
10.9716203212738
 30
5.249999999999999
 70
   192
  0
VERTEX
  5
2AC
330
2A3
100
AcDbEntity
  8
3D-GENM
100
AcDbVertex
100
AcDbPolyFaceMeshVertex
 10
-4.593749999999999
 20
11.03124976158142
 30
5.249999999999999
 70
   192
  0
VERTEX
  5
2AD
330
2A3
100
AcDbEntity
  8
3D-GENM
100
AcDbVertex
100
AcDbPolyFaceMeshVertex
 10
4.593749999999999
 20
11.03124976158142
 30
5.249999999999999
 70
   192
  0
VERTEX
  5
2AE
330
2A3
100
AcDbEntity
  8
3D-GENM
100
AcDbVertex
100
AcDbPolyFaceMeshVertex
 10
5.046683192253111
 20
10.9716203212738
 30
5.249999999999999
 70
   192
  0
VERTEX
  5
2AF
330
2A3
100
AcDbEntity
  8
3D-GENM
100
AcDbVertex
100
AcDbPolyFaceMeshVertex
 10
5.468749880790709
 20
10.79679465293884
 30
5.249999999999999
 70
   192
  0
VERTEX
  5
2B0
330
2A3
100
AcDbEntity
  8
3D-GENM
100
AcDbVertex
100
AcDbPolyFaceMeshVertex
 10
5.831186771392821
 20
10.51868677139282
 30
5.249999999999999
 70
   192
  0
VERTEX
  5
2B1
330
2A3
100
AcDbEntity
  8
3D-GENM
100
AcDbVertex
100
AcDbPolyFaceMeshVertex
 10
6.109294652938841
 20
10.15625023841858
 30
5.249999999999999
 70
   192
  0
VERTEX
  5
2B2
330
2A3
100
AcDbEntity
  8
3D-GENM
100
AcDbVertex
100
AcDbPolyFaceMeshVertex
 10
6.284120321273802
 20
9.734183549880979
 30
5.249999999999999
 70
   192
  0
VERTEX
  5
2B3
330
2A3
100
AcDbEntity
  8
3D-GENM
100
AcDbVertex
100
AcDbPolyFaceMeshVertex
 10
6.34374976158142
 20
9.281249999999998
 30
5.249999999999999
 70
   192
  0
VERTEX
  5
2B4
330
2A3
100
AcDbEntity
  8
3D-GENM
100
AcDbVertex
100
AcDbPolyFaceMeshVertex
 10
3.937499999999999
 20
2.124999940395354
 30
5.249999999999999
 70
   192
  0
VERTEX
  5
2B5
330
2A3
100
AcDbEntity
  8
3D-GENM
100
AcDbVertex
100
AcDbPolyFaceMeshVertex
 10
3.937499999999999
 20
8.843750238418577
 30
5.249999999999999
 70
   192
  0
VERTEX
  5
2B6
330
2A3
100
AcDbEntity
  8
3D-GENM
100
AcDbVertex
100
AcDbPolyFaceMeshVertex
 10
-3.937499999999999
 20
8.843750238418577
 30
5.249999999999999
 70
   192
  0
VERTEX
  5
2B7
330
2A3
100
AcDbEntity
  8
3D-GENM
100
AcDbVertex
100
AcDbPolyFaceMeshVertex
 10
-3.937499999999999
 20
2.124999940395354
 30
5.249999999999999
 70
   192
  0
VERTEX
  5
2B8
330
2A3
100
AcDbEntity
  8
3D-GENM
100
AcDbFaceRecord
 10
0.0
 20
0.0
 30
0.0
 70
   128
 71
    16
 72
    -1
 73
   -17
  0
VERTEX
  5
2B9
330
2A3
100
AcDbEntity
  8
3D-GENM
100
AcDbFaceRecord
 10
0.0
 20
0.0
 30
0.0
 70
   128
 71
   -18
 72
    15
 73
   -16
 74
    17
  0
VERTEX
  5
2BA
330
2A3
100
AcDbEntity
  8
3D-GENM
100
AcDbFaceRecord
 10
0.0
 20
0.0
 30
0.0
 70
   128
 71
    14
 72
   -15
 73
   -18
 74
    13
  0
VERTEX
  5
2BB
330
2A3
100
AcDbEntity
  8
3D-GENM
100
AcDbFaceRecord
 10
0.0
 20
0.0
 30
0.0
 70
   128
 71
   -17
 72
     1
 73
    -2
 74
    20
  0
VERTEX
  5
2BC
330
2A3
100
AcDbEntity
  8
3D-GENM
100
AcDbFaceRecord
 10
0.0
 20
0.0
 30
0.0
 70
   128
 71
    12
 72
   -13
 73
   -18
 74
    11
  0
VERTEX
  5
2BD
330
2A3
100
AcDbEntity
  8
3D-GENM
100
AcDbFaceRecord
 10
0.0
 20
0.0
 30
0.0
 70
   128
 71
    10
 72
   -11
 73
    18
 74
   -19
  0
VERTEX
  5
2BE
330
2A3
100
AcDbEntity
  8
3D-GENM
100
AcDbFaceRecord
 10
0.0
 20
0.0
 30
0.0
 70
   128
 71
    19
 72
   -20
 73
     3
 74
    -4
  0
VERTEX
  5
2BF
330
2A3
100
AcDbEntity
  8
3D-GENM
100
AcDbFaceRecord
 10
0.0
 20
0.0
 30
0.0
 70
   128
 71
    -3
 72
   -20
 73
     2
  0
VERTEX
  5
2C0
330
2A3
100
AcDbEntity
  8
3D-GENM
100
AcDbFaceRecord
 10
0.0
 20
0.0
 30
0.0
 70
   128
 71
   -19
 72
     4
 73
     5
 74
    -6
  0
VERTEX
  5
2C1
330
2A3
100
AcDbEntity
  8
3D-GENM
100
AcDbFaceRecord
 10
0.0
 20
0.0
 30
0.0
 70
   128
 71
     8
 72
    -9
 73
   -19
 74
     7
  0
VERTEX
  5
2C2
330
2A3
100
AcDbEntity
  8
3D-GENM
100
AcDbFaceRecord
 10
0.0
 20
0.0
 30
0.0
 70
   128
 71
     6
 72
    -7
 73
   -19
  0
VERTEX
  5
2C3
330
2A3
100
AcDbEntity
  8
3D-GENM
100
AcDbFaceRecord
 10
0.0
 20
0.0
 30
0.0
 70
   128
 71
   -19
 72
     9
 73
   -10
  0
SEQEND
  5
2C4
330
2A3
100
AcDbEntity
  8
3D-GENM
  0
POLYLINE
  5
2C5
330
294
100
AcDbEntity
  8
3D-GENM
100
AcDbPolyFaceMesh
 66
     1
 10
0.0
 20
0.0
 30
0.0
 70
    64
 71
     7
 72
     3
1001
REVIT
1002
{
1070
     4
1000
5277
1002
}
1002
{
1070
     2
1000
-2000151
1002
}
  0
VERTEX
  5
2C6
330
2C5
100
AcDbEntity
  8
3D-GENM
100
AcDbVertex
100
AcDbPolyFaceMeshVertex
 10
4.593749999999999
 20
11.03124976158142
 30
5.249999999999999
 70
   192
  0
VERTEX
  5
2C7
330
2C5
100
AcDbEntity
  8
3D-GENM
100
AcDbVertex
100
AcDbPolyFaceMeshVertex
 10
-4.593749999999999
 20
11.03124976158142
 30
5.249999999999999
 70
   192
  0
VERTEX
  5
2C8
330
2C5
100
AcDbEntity
  8
3D-GENM
100
AcDbVertex
100
AcDbPolyFaceMeshVertex
 10
-4.593749999999999
 20
11.03124976158142
 30
7.426086902618407
 70
   192
  0
VERTEX
  5
2C9
330
2C5
100
AcDbEntity
  8
3D-GENM
100
AcDbVertex
100
AcDbPolyFaceMeshVertex
 10
-2.300939977169036
 20
11.03124976158142
 30
7.622074127197264
 70
   192
  0
VERTEX
  5
2CA
330
2C5
100
AcDbEntity
  8
3D-GENM
100
AcDbVertex
100
AcDbPolyFaceMeshVertex
 10
0.0000000000005396
 20
11.03124976158142
 30
7.687499999999999
 70
   192
  0
VERTEX
  5
2CB
330
2C5
100
AcDbEntity
  8
3D-GENM
100
AcDbVertex
100
AcDbPolyFaceMeshVertex
 10
2.300939977169036
 20
11.03124976158142
 30
7.622074127197264
 70
   192
  0
VERTEX
  5
2CC
330
2C5
100
AcDbEntity
  8
3D-GENM
100
AcDbVertex
100
AcDbPolyFaceMeshVertex
 10
4.593749999999999
 20
11.03124976158142
 30
7.426086902618407
 70
   192
  0
VERTEX
  5
2CD
330
2C5
100
AcDbEntity
  8
3D-GENM
100
AcDbFaceRecord
 10
0.0
 20
0.0
 30
0.0
 70
   128
 71
     6
 72
     7
 73
    -1
 74
     5
  0
VERTEX
  5
2CE
330
2C5
100
AcDbEntity
  8
3D-GENM
100
AcDbFaceRecord
 10
0.0
 20
0.0
 30
0.0
 70
   128
 71
     2
 72
     3
 73
     4
 74
    -5
  0
VERTEX
  5
2CF
330
2C5
100
AcDbEntity
  8
3D-GENM
100
AcDbFaceRecord
 10
0.0
 20
0.0
 30
0.0
 70
   128
 71
    -2
 72
    -5
 73
     1
  0
SEQEND
  5
2D0
330
2C5
100
AcDbEntity
  8
3D-GENM
  0
POLYLINE
  5
2D1
330
294
100
AcDbEntity
  8
3D-GENM
100
AcDbPolyFaceMesh
 66
     1
 10
0.0
 20
0.0
 30
0.0
 70
    64
 71
    19
 72
     9
1001
REVIT
1002
{
1070
     4
1000
5277
1002
}
1002
{
1070
     2
1000
-2000151
1002
}
  0
VERTEX
  5
2D2
330
2D1
100
AcDbEntity
  8
3D-GENM
100
AcDbVertex
100
AcDbPolyFaceMeshVertex
 10
-6.34374976158142
 20
-9.531249761581419
 30
5.249999999999999
 70
   192
  0
VERTEX
  5
2D3
330
2D1
100
AcDbEntity
  8
3D-GENM
100
AcDbVertex
100
AcDbPolyFaceMeshVertex
 10
6.34374976158142
 20
-9.531249761581419
 30
5.249999999999999
 70
   192
  0
VERTEX
  5
2D4
330
2D1
100
AcDbEntity
  8
3D-GENM
100
AcDbVertex
100
AcDbPolyFaceMeshVertex
 10
6.34374976158142
 20
-9.531249761581419
 30
6.973456621170043
 70
   192
  0
VERTEX
  5
2D5
330
2D1
100
AcDbEntity
  8
3D-GENM
100
AcDbVertex
100
AcDbPolyFaceMeshVertex
 10
6.336793184280394
 20
-9.531249761581419
 30
7.032023906707762
 70
   192
  0
VERTEX
  5
2D6
330
2D1
100
AcDbEntity
  8
3D-GENM
100
AcDbVertex
100
AcDbPolyFaceMeshVertex
 10
6.316309690475462
 20
-9.531249761581419
 30
7.087331056594847
 70
   192
  0
VERTEX
  5
2D7
330
2D1
100
AcDbEntity
  8
3D-GENM
100
AcDbVertex
100
AcDbPolyFaceMeshVertex
 10
6.283439397811888
 20
-9.531249761581419
 30
7.136300325393675
 70
   192
  0
VERTEX
  5
2D8
330
2D1
100
AcDbEntity
  8
3D-GENM
100
AcDbVertex
100
AcDbPolyFaceMeshVertex
 10
6.240011930465697
 20
-9.531249761581419
 30
7.176206588745116
 70
   192
  0
VERTEX
  5
2D9
330
2D1
100
AcDbEntity
  8
3D-GENM
100
AcDbVertex
100
AcDbPolyFaceMeshVertex
 10
6.188444137573241
 20
-9.531249761581419
 30
7.204828977584837
 70
   192
  0
VERTEX
  5
2DA
330
2D1
100
AcDbEntity
  8
3D-GENM
100
AcDbVertex
100
AcDbPolyFaceMeshVertex
 10
6.131605625152587
 20
-9.531249761581419
 30
7.220573902130126
 70
   192
  0
VERTEX
  5
2DB
330
2D1
100
AcDbEntity
  8
3D-GENM
100
AcDbVertex
100
AcDbPolyFaceMeshVertex
 10
3.074679136276244
 20
-9.531249761581419
 30
7.570600032806395
 70
   192
  0
VERTEX
  5
2DC
330
2D1
100
AcDbEntity
  8
3D-GENM
100
AcDbVertex
100
AcDbPolyFaceMeshVertex
 10
0.000000000000802
 20
-9.531249761581419
 30
7.687499999999999
 70
   192
  0
VERTEX
  5
2DD
330
2D1
100
AcDbEntity
  8
3D-GENM
100
AcDbVertex
100
AcDbPolyFaceMeshVertex
 10
-3.074679136276244
 20
-9.531249761581419
 30
7.570600032806395
 70
   192
  0
VERTEX
  5
2DE
330
2D1
100
AcDbEntity
  8
3D-GENM
100
AcDbVertex
100
AcDbPolyFaceMeshVertex
 10
-6.131605625152587
 20
-9.531249761581419
 30
7.220573902130126
 70
   192
  0
VERTEX
  5
2DF
330
2D1
100
AcDbEntity
  8
3D-GENM
100
AcDbVertex
100
AcDbPolyFaceMeshVertex
 10
-6.188444137573241
 20
-9.531249761581419
 30
7.204828977584837
 70
   192
  0
VERTEX
  5
2E0
330
2D1
100
AcDbEntity
  8
3D-GENM
100
AcDbVertex
100
AcDbPolyFaceMeshVertex
 10
-6.240011930465697
 20
-9.531249761581419
 30
7.176206588745116
 70
   192
  0
VERTEX
  5
2E1
330
2D1
100
AcDbEntity
  8
3D-GENM
100
AcDbVertex
100
AcDbPolyFaceMeshVertex
 10
-6.283439397811888
 20
-9.531249761581419
 30
7.136300325393675
 70
   192
  0
VERTEX
  5
2E2
330
2D1
100
AcDbEntity
  8
3D-GENM
100
AcDbVertex
100
AcDbPolyFaceMeshVertex
 10
-6.316309690475462
 20
-9.531249761581419
 30
7.087331056594847
 70
   192
  0
VERTEX
  5
2E3
330
2D1
100
AcDbEntity
  8
3D-GENM
100
AcDbVertex
100
AcDbPolyFaceMeshVertex
 10
-6.336793184280394
 20
-9.531249761581419
 30
7.032023906707762
 70
   192
  0
VERTEX
  5
2E4
330
2D1
100
AcDbEntity
  8
3D-GENM
100
AcDbVertex
100
AcDbPolyFaceMeshVertex
 10
-6.34374976158142
 20
-9.531249761581419
 30
6.973456621170043
 70
   192
  0
VERTEX
  5
2E5
330
2D1
100
AcDbEntity
  8
3D-GENM
100
AcDbFaceRecord
 10
0.0
 20
0.0
 30
0.0
 70
   128
 71
     6
 72
     7
 73
    -8
 74
    -4
  0
VERTEX
  5
2E6
330
2D1
100
AcDbEntity
  8
3D-GENM
100
AcDbFaceRecord
 10
0.0
 20
0.0
 30
0.0
 70
   128
 71
     8
 72
    -9
 73
     3
 74
    -4
  0
VERTEX
  5
2E7
330
2D1
100
AcDbEntity
  8
3D-GENM
100
AcDbFaceRecord
 10
0.0
 20
0.0
 30
0.0
 70
   128
 71
     9
 72
   -10
 73
     2
 74
    -3
  0
VERTEX
  5
2E8
330
2D1
100
AcDbEntity
  8
3D-GENM
100
AcDbFaceRecord
 10
0.0
 20
0.0
 30
0.0
 70
   128
 71
     4
 72
     5
 73
    -6
  0
VERTEX
  5
2E9
330
2D1
100
AcDbEntity
  8
3D-GENM
100
AcDbFaceRecord
 10
0.0
 20
0.0
 30
0.0
 70
   128
 71
    -2
 72
    10
 73
   -11
 74
     1
  0
VERTEX
  5
2EA
330
2D1
100
AcDbEntity
  8
3D-GENM
100
AcDbFaceRecord
 10
0.0
 20
0.0
 30
0.0
 70
   128
 71
    -1
 72
    11
 73
    12
 74
   -13
  0
VERTEX
  5
2EB
330
2D1
100
AcDbEntity
  8
3D-GENM
100
AcDbFaceRecord
 10
0.0
 20
0.0
 30
0.0
 70
   128
 71
   -16
 72
    13
 73
    14
 74
    15
  0
VERTEX
  5
2EC
330
2D1
100
AcDbEntity
  8
3D-GENM
100
AcDbFaceRecord
 10
0.0
 20
0.0
 30
0.0
 70
   128
 71
    16
 72
    17
 73
   -18
 74
   -13
  0
VERTEX
  5
2ED
330
2D1
100
AcDbEntity
  8
3D-GENM
100
AcDbFaceRecord
 10
0.0
 20
0.0
 30
0.0
 70
   128
 71
    19
 72
    -1
 73
   -13
 74
    18
  0
SEQEND
  5
2EE
330
2D1
100
AcDbEntity
  8
3D-GENM
  0
POLYLINE
  5
2EF
330
294
100
AcDbEntity
  8
3D-GENM
100
AcDbPolyFaceMesh
 66
     1
 10
0.0
 20
0.0
 30
0.0
 70
    64
 71
    14
 72
    12
1001
REVIT
1002
{
1070
     4
1000
5277
1002
}
1002
{
1070
     2
1000
-2000151
1002
}
  0
VERTEX
  5
2F0
330
2EF
100
AcDbEntity
  8
3D-GENM
100
AcDbVertex
100
AcDbPolyFaceMeshVertex
 10
-6.34374976158142
 20
-9.531249761581419
 30
6.973456621170043
 70
   192
  0
VERTEX
  5
2F1
330
2EF
100
AcDbEntity
  8
3D-GENM
100
AcDbVertex
100
AcDbPolyFaceMeshVertex
 10
-6.336793184280394
 20
-9.531249761581419
 30
7.032023906707762
 70
   192
  0
VERTEX
  5
2F2
330
2EF
100
AcDbEntity
  8
3D-GENM
100
AcDbVertex
100
AcDbPolyFaceMeshVertex
 10
-6.316309690475462
 20
-9.531249761581419
 30
7.087331056594847
 70
   192
  0
VERTEX
  5
2F3
330
2EF
100
AcDbEntity
  8
3D-GENM
100
AcDbVertex
100
AcDbPolyFaceMeshVertex
 10
-6.283439397811888
 20
-9.531249761581419
 30
7.136300325393675
 70
   192
  0
VERTEX
  5
2F4
330
2EF
100
AcDbEntity
  8
3D-GENM
100
AcDbVertex
100
AcDbPolyFaceMeshVertex
 10
-6.240011930465697
 20
-9.531249761581419
 30
7.176206588745116
 70
   192
  0
VERTEX
  5
2F5
330
2EF
100
AcDbEntity
  8
3D-GENM
100
AcDbVertex
100
AcDbPolyFaceMeshVertex
 10
-6.188444137573241
 20
-9.531249761581419
 30
7.204828977584837
 70
   192
  0
VERTEX
  5
2F6
330
2EF
100
AcDbEntity
  8
3D-GENM
100
AcDbVertex
100
AcDbPolyFaceMeshVertex
 10
-6.131605625152587
 20
-9.531249761581419
 30
7.220573902130126
 70
   192
  0
VERTEX
  5
2F7
330
2EF
100
AcDbEntity
  8
3D-GENM
100
AcDbVertex
100
AcDbPolyFaceMeshVertex
 10
-6.131605625152587
 20
10.11641407012939
 30
7.220573902130126
 70
   192
  0
VERTEX
  5
2F8
330
2EF
100
AcDbEntity
  8
3D-GENM
100
AcDbVertex
100
AcDbPolyFaceMeshVertex
 10
-6.225673913955687
 20
9.913171291351316
 30
7.185815334320067
 70
   192
  0
VERTEX
  5
2F9
330
2EF
100
AcDbEntity
  8
3D-GENM
100
AcDbVertex
100
AcDbPolyFaceMeshVertex
 10
-6.291839361190795
 20
9.70432662963867
 30
7.125971317291258
 70
   192
  0
VERTEX
  5
2FA
330
2EF
100
AcDbEntity
  8
3D-GENM
100
AcDbVertex
100
AcDbPolyFaceMeshVertex
 10
-6.330860137939452
 20
9.493258237838743
 30
7.052694797515868
 70
   192
  0
VERTEX
  5
2FB
330
2EF
100
AcDbEntity
  8
3D-GENM
100
AcDbVertex
100
AcDbPolyFaceMeshVertex
 10
-6.34374976158142
 20
9.281249999999998
 30
6.973456621170043
 70
   192
  0
VERTEX
  5
2FC
330
2EF
100
AcDbEntity
  8
3D-GENM
100
AcDbVertex
100
AcDbPolyFaceMeshVertex
 10
-6.131605625152587
 20
-3.739992141723632
 30
7.220573902130126
 70
   192
  0
VERTEX
  5
2FD
330
2EF
100
AcDbEntity
  8
3D-GENM
100
AcDbVertex
100
AcDbPolyFaceMeshVertex
 10
-6.34374976158142
 20
-0.1250000037252903
 30
6.973456621170043
 70
   192
  0
VERTEX
  5
2FE
330
2EF
100
AcDbEntity
  8
3D-GENM
100
AcDbFaceRecord
 10
0.0
 20
0.0
 30
0.0
 70
   128
 71
     9
 72
   -10
 73
   -14
  0
VERTEX
  5
2FF
330
2EF
100
AcDbEntity
  8
3D-GENM
100
AcDbFaceRecord
 10
0.0
 20
0.0
 30
0.0
 70
   128
 71
   -13
 72
    -9
 73
   -14
  0
VERTEX
  5
300
330
2EF
100
AcDbEntity
  8
3D-GENM
100
AcDbFaceRecord
 10
0.0
 20
0.0
 30
0.0
 70
   128
 71
   -13
 72
   -14
 73
    -3
  0
VERTEX
  5
301
330
2EF
100
AcDbEntity
  8
3D-GENM
100
AcDbFaceRecord
 10
0.0
 20
0.0
 30
0.0
 70
   128
 71
   -14
 72
     2
 73
    -3
  0
VERTEX
  5
302
330
2EF
100
AcDbEntity
  8
3D-GENM
100
AcDbFaceRecord
 10
0.0
 20
0.0
 30
0.0
 70
   128
 71
    -2
 72
    14
 73
     1
  0
VERTEX
  5
303
330
2EF
100
AcDbEntity
  8
3D-GENM
100
AcDbFaceRecord
 10
0.0
 20
0.0
 30
0.0
 70
   128
 71
    11
 72
    12
 73
   -14
  0
VERTEX
  5
304
330
2EF
100
AcDbEntity
  8
3D-GENM
100
AcDbFaceRecord
 10
0.0
 20
0.0
 30
0.0
 70
   128
 71
     3
 72
    -4
 73
   -13
  0
VERTEX
  5
305
330
2EF
100
AcDbEntity
  8
3D-GENM
100
AcDbFaceRecord
 10
0.0
 20
0.0
 30
0.0
 70
   128
 71
   -14
 72
    10
 73
   -11
  0
VERTEX
  5
306
330
2EF
100
AcDbEntity
  8
3D-GENM
100
AcDbFaceRecord
 10
0.0
 20
0.0
 30
0.0
 70
   128
 71
     6
 72
     7
 73
   -13
  0
VERTEX
  5
307
330
2EF
100
AcDbEntity
  8
3D-GENM
100
AcDbFaceRecord
 10
0.0
 20
0.0
 30
0.0
 70
   128
 71
     5
 72
    -6
 73
   -13
  0
VERTEX
  5
308
330
2EF
100
AcDbEntity
  8
3D-GENM
100
AcDbFaceRecord
 10
0.0
 20
0.0
 30
0.0
 70
   128
 71
    -9
 72
    13
 73
     8
  0
VERTEX
  5
309
330
2EF
100
AcDbEntity
  8
3D-GENM
100
AcDbFaceRecord
 10
0.0
 20
0.0
 30
0.0
 70
   128
 71
   -13
 72
     4
 73
    -5
  0
SEQEND
  5
30A
330
2EF
100
AcDbEntity
  8
3D-GENM
  0
POLYLINE
  5
30B
330
294
100
AcDbEntity
  8
3D-GENM
100
AcDbPolyFaceMesh
 66
     1
 10
0.0
 20
0.0
 30
0.0
 70
    64
 71
    30
 72
    28
1001
REVIT
1002
{
1070
     4
1000
5277
1002
}
1002
{
1070
     2
1000
-2000151
1002
}
  0
VERTEX
  5
30C
330
30B
100
AcDbEntity
  8
3D-GENM
100
AcDbVertex
100
AcDbPolyFaceMeshVertex
 10
-6.131605625152587
 20
-9.531249761581419
 30
7.220573902130126
 70
   192
  0
VERTEX
  5
30D
330
30B
100
AcDbEntity
  8
3D-GENM
100
AcDbVertex
100
AcDbPolyFaceMeshVertex
 10
-3.074679136276244
 20
-9.531249761581419
 30
7.570600032806395
 70
   192
  0
VERTEX
  5
30E
330
30B
100
AcDbEntity
  8
3D-GENM
100
AcDbVertex
100
AcDbPolyFaceMeshVertex
 10
0.0000000000002883
 20
-9.531249761581419
 30
7.687499999999999
 70
   192
  0
VERTEX
  5
30F
330
30B
100
AcDbEntity
  8
3D-GENM
100
AcDbVertex
100
AcDbPolyFaceMeshVertex
 10
3.074679136276244
 20
-9.531249761581419
 30
7.570600032806395
 70
   192
  0
VERTEX
  5
310
330
30B
100
AcDbEntity
  8
3D-GENM
100
AcDbVertex
100
AcDbPolyFaceMeshVertex
 10
6.131605625152587
 20
-9.531249761581419
 30
7.220573902130126
 70
   192
  0
VERTEX
  5
311
330
30B
100
AcDbEntity
  8
3D-GENM
100
AcDbVertex
100
AcDbPolyFaceMeshVertex
 10
6.131605625152587
 20
10.11641407012939
 30
7.220573902130126
 70
   192
  0
VERTEX
  5
312
330
30B
100
AcDbEntity
  8
3D-GENM
100
AcDbVertex
100
AcDbPolyFaceMeshVertex
 10
5.854299902915953
 20
10.49513339996337
 30
7.262072324752806
 70
   192
  0
VERTEX
  5
313
330
30B
100
AcDbEntity
  8
3D-GENM
100
AcDbVertex
100
AcDbPolyFaceMeshVertex
 10
5.487458467483519
 20
10.78583765029907
 30
7.313958406448363
 70
   192
  0
VERTEX
  5
314
330
30B
100
AcDbEntity
  8
3D-GENM
100
AcDbVertex
100
AcDbPolyFaceMeshVertex
 10
5.057193160057066
 20
10.9687693119049
 30
7.370462179183959
 70
   192
  0
VERTEX
  5
315
330
30B
100
AcDbEntity
  8
3D-GENM
100
AcDbVertex
100
AcDbPolyFaceMeshVertex
 10
4.593749999999999
 20
11.03124976158142
 30
7.426086902618407
 70
   192
  0
VERTEX
  5
316
330
30B
100
AcDbEntity
  8
3D-GENM
100
AcDbVertex
100
AcDbPolyFaceMeshVertex
 10
2.300939977169036
 20
11.03124976158142
 30
7.622074127197264
 70
   192
  0
VERTEX
  5
317
330
30B
100
AcDbEntity
  8
3D-GENM
100
AcDbVertex
100
AcDbPolyFaceMeshVertex
 10
0.0000000000005401
 20
11.03124976158142
 30
7.687499999999999
 70
   192
  0
VERTEX
  5
318
330
30B
100
AcDbEntity
  8
3D-GENM
100
AcDbVertex
100
AcDbPolyFaceMeshVertex
 10
-2.300939977169036
 20
11.03124976158142
 30
7.622074127197264
 70
   192
  0
VERTEX
  5
319
330
30B
100
AcDbEntity
  8
3D-GENM
100
AcDbVertex
100
AcDbPolyFaceMeshVertex
 10
-4.593749999999999
 20
11.03124976158142
 30
7.426086902618407
 70
   192
  0
VERTEX
  5
31A
330
30B
100
AcDbEntity
  8
3D-GENM
100
AcDbVertex
100
AcDbPolyFaceMeshVertex
 10
-5.057193160057066
 20
10.9687693119049
 30
7.370462179183959
 70
   192
  0
VERTEX
  5
31B
330
30B
100
AcDbEntity
  8
3D-GENM
100
AcDbVertex
100
AcDbPolyFaceMeshVertex
 10
-5.487458467483519
 20
10.78583765029907
 30
7.313958406448363
 70
   192
  0
VERTEX
  5
31C
330
30B
100
AcDbEntity
  8
3D-GENM
100
AcDbVertex
100
AcDbPolyFaceMeshVertex
 10
-5.854299902915953
 20
10.49513339996337
 30
7.262072324752806
 70
   192
  0
VERTEX
  5
31D
330
30B
100
AcDbEntity
  8
3D-GENM
100
AcDbVertex
100
AcDbPolyFaceMeshVertex
 10
-6.131605625152587
 20
10.11641407012939
 30
7.220573902130126
 70
   192
  0
VERTEX
  5
31E
330
30B
100
AcDbEntity
  8
3D-GENM
100
AcDbVertex
100
AcDbPolyFaceMeshVertex
 10
3.937499999999999
 20
8.934963226318357
 30
7.495606899261473
 70
   192
  0
VERTEX
  5
31F
330
30B
100
AcDbEntity
  8
3D-GENM
100
AcDbVertex
100
AcDbPolyFaceMeshVertex
 10
3.937499999999999
 20
2.033786416053771
 30
7.495606899261473
 70
   192
  0
VERTEX
  5
320
330
30B
100
AcDbEntity
  8
3D-GENM
100
AcDbVertex
100
AcDbPolyFaceMeshVertex
 10
-0.0000000000000354
 20
1.922996878623962
 30
7.687499999999999
 70
   192
  0
VERTEX
  5
321
330
30B
100
AcDbEntity
  8
3D-GENM
100
AcDbVertex
100
AcDbPolyFaceMeshVertex
 10
-3.937499999999999
 20
2.033786416053771
 30
7.495606899261473
 70
   192
  0
VERTEX
  5
322
330
30B
100
AcDbEntity
  8
3D-GENM
100
AcDbVertex
100
AcDbPolyFaceMeshVertex
 10
-3.937499999999999
 20
8.934963226318357
 30
7.495606899261473
 70
   192
  0
VERTEX
  5
323
330
30B
100
AcDbEntity
  8
3D-GENM
100
AcDbVertex
100
AcDbPolyFaceMeshVertex
 10
0.0000000000000725
 20
9.045753479003904
 30
7.687499999999999
 70
   192
  0
VERTEX
  5
324
330
30B
100
AcDbEntity
  8
3D-GENM
100
AcDbVertex
100
AcDbPolyFaceMeshVertex
 10
6.131605625152587
 20
0.2925821766257286
 30
7.220573902130126
 70
   192
  0
VERTEX
  5
325
330
30B
100
AcDbEntity
  8
3D-GENM
100
AcDbVertex
100
AcDbPolyFaceMeshVertex
 10
-6.131605625152587
 20
0.2925821766257286
 30
7.220573902130126
 70
   192
  0
VERTEX
  5
326
330
30B
100
AcDbEntity
  8
3D-GENM
100
AcDbVertex
100
AcDbPolyFaceMeshVertex
 10
-1.968749999999999
 20
8.990358352661131
 30
7.591553449630736
 70
   192
  0
VERTEX
  5
327
330
30B
100
AcDbEntity
  8
3D-GENM
100
AcDbVertex
100
AcDbPolyFaceMeshVertex
 10
1.968749999999999
 20
8.990358352661131
 30
7.591553449630736
 70
   192
  0
VERTEX
  5
328
330
30B
100
AcDbEntity
  8
3D-GENM
100
AcDbVertex
100
AcDbPolyFaceMeshVertex
 10
6.131605625152587
 20
5.204498291015624
 30
7.220573902130126
 70
   192
  0
VERTEX
  5
329
330
30B
100
AcDbEntity
  8
3D-GENM
100
AcDbVertex
100
AcDbPolyFaceMeshVertex
 10
-6.131605625152587
 20
5.204498291015624
 30
7.220573902130126
 70
   192
  0
VERTEX
  5
32A
330
30B
100
AcDbEntity
  8
3D-GENM
100
AcDbFaceRecord
 10
0.0
 20
0.0
 30
0.0
 70
   128
 71
     1
 72
    -2
 73
    26
  0
VERTEX
  5
32B
330
30B
100
AcDbEntity
  8
3D-GENM
100
AcDbFaceRecord
 10
0.0
 20
0.0
 30
0.0
 70
   128
 71
   -26
 72
    -2
 73
   -22
  0
VERTEX
  5
32C
330
30B
100
AcDbEntity
  8
3D-GENM
100
AcDbFaceRecord
 10
0.0
 20
0.0
 30
0.0
 70
   128
 71
   -13
 72
    23
 73
   -27
  0
VERTEX
  5
32D
330
30B
100
AcDbEntity
  8
3D-GENM
100
AcDbFaceRecord
 10
0.0
 20
0.0
 30
0.0
 70
   128
 71
   -23
 72
    18
 73
   -30
 74
    22
  0
VERTEX
  5
32E
330
30B
100
AcDbEntity
  8
3D-GENM
100
AcDbFaceRecord
 10
0.0
 20
0.0
 30
0.0
 70
   128
 71
     2
 72
    -3
 73
   -21
  0
VERTEX
  5
32F
330
30B
100
AcDbEntity
  8
3D-GENM
100
AcDbFaceRecord
 10
0.0
 20
0.0
 30
0.0
 70
   128
 71
   -21
 72
     3
 73
    -4
  0
VERTEX
  5
330
330
30B
100
AcDbEntity
  8
3D-GENM
100
AcDbFaceRecord
 10
0.0
 20
0.0
 30
0.0
 70
   128
 71
    -2
 72
    21
 73
   -22
  0
VERTEX
  5
331
330
30B
100
AcDbEntity
  8
3D-GENM
100
AcDbFaceRecord
 10
0.0
 20
0.0
 30
0.0
 70
   128
 71
    27
 72
   -24
 73
   -12
  0
VERTEX
  5
332
330
30B
100
AcDbEntity
  8
3D-GENM
100
AcDbFaceRecord
 10
0.0
 20
0.0
 30
0.0
 70
   128
 71
   -23
 72
    17
 73
   -18
  0
VERTEX
  5
333
330
30B
100
AcDbEntity
  8
3D-GENM
100
AcDbFaceRecord
 10
0.0
 20
0.0
 30
0.0
 70
   128
 71
   -23
 72
    16
 73
   -17
  0
VERTEX
  5
334
330
30B
100
AcDbEntity
  8
3D-GENM
100
AcDbFaceRecord
 10
0.0
 20
0.0
 30
0.0
 70
   128
 71
    15
 72
   -16
 73
   -23
  0
VERTEX
  5
335
330
30B
100
AcDbEntity
  8
3D-GENM
100
AcDbFaceRecord
 10
0.0
 20
0.0
 30
0.0
 70
   128
 71
   -23
 72
    14
 73
   -15
  0
VERTEX
  5
336
330
30B
100
AcDbEntity
  8
3D-GENM
100
AcDbFaceRecord
 10
0.0
 20
0.0
 30
0.0
 70
   128
 71
   -23
 72
    13
 73
   -14
  0
VERTEX
  5
337
330
30B
100
AcDbEntity
  8
3D-GENM
100
AcDbFaceRecord
 10
0.0
 20
0.0
 30
0.0
 70
   128
 71
   -12
 72
   -28
 73
    11
  0
VERTEX
  5
338
330
30B
100
AcDbEntity
  8
3D-GENM
100
AcDbFaceRecord
 10
0.0
 20
0.0
 30
0.0
 70
   128
 71
   -20
 72
    25
 73
   -29
 74
    19
  0
VERTEX
  5
339
330
30B
100
AcDbEntity
  8
3D-GENM
100
AcDbFaceRecord
 10
0.0
 20
0.0
 30
0.0
 70
   128
 71
   -22
 72
    30
 73
   -26
  0
VERTEX
  5
33A
330
30B
100
AcDbEntity
  8
3D-GENM
100
AcDbFaceRecord
 10
0.0
 20
0.0
 30
0.0
 70
   128
 71
    20
 72
   -21
 73
    -4
  0
VERTEX
  5
33B
330
30B
100
AcDbEntity
  8
3D-GENM
100
AcDbFaceRecord
 10
0.0
 20
0.0
 30
0.0
 70
   128
 71
     4
 72
     5
 73
   -25
  0
VERTEX
  5
33C
330
30B
100
AcDbEntity
  8
3D-GENM
100
AcDbFaceRecord
 10
0.0
 20
0.0
 30
0.0
 70
   128
 71
    -4
 72
   -25
 73
   -20
  0
VERTEX
  5
33D
330
30B
100
AcDbEntity
  8
3D-GENM
100
AcDbFaceRecord
 10
0.0
 20
0.0
 30
0.0
 70
   128
 71
   -19
 72
    29
 73
    -6
  0
VERTEX
  5
33E
330
30B
100
AcDbEntity
  8
3D-GENM
100
AcDbFaceRecord
 10
0.0
 20
0.0
 30
0.0
 70
   128
 71
    28
 72
   -19
 73
   -11
  0
VERTEX
  5
33F
330
30B
100
AcDbEntity
  8
3D-GENM
100
AcDbFaceRecord
 10
0.0
 20
0.0
 30
0.0
 70
   128
 71
    -7
 72
   -19
 73
     6
  0
VERTEX
  5
340
330
30B
100
AcDbEntity
  8
3D-GENM
100
AcDbFaceRecord
 10
0.0
 20
0.0
 30
0.0
 70
   128
 71
   -19
 72
    10
 73
   -11
  0
VERTEX
  5
341
330
30B
100
AcDbEntity
  8
3D-GENM
100
AcDbFaceRecord
 10
0.0
 20
0.0
 30
0.0
 70
   128
 71
   -12
 72
    24
 73
   -28
  0
VERTEX
  5
342
330
30B
100
AcDbEntity
  8
3D-GENM
100
AcDbFaceRecord
 10
0.0
 20
0.0
 30
0.0
 70
   128
 71
   -19
 72
     8
 73
    -9
  0
VERTEX
  5
343
330
30B
100
AcDbEntity
  8
3D-GENM
100
AcDbFaceRecord
 10
0.0
 20
0.0
 30
0.0
 70
   128
 71
     9
 72
   -10
 73
   -19
  0
VERTEX
  5
344
330
30B
100
AcDbEntity
  8
3D-GENM
100
AcDbFaceRecord
 10
0.0
 20
0.0
 30
0.0
 70
   128
 71
   -19
 72
     7
 73
    -8
  0
VERTEX
  5
345
330
30B
100
AcDbEntity
  8
3D-GENM
100
AcDbFaceRecord
 10
0.0
 20
0.0
 30
0.0
 70
   128
 71
    12
 72
   -13
 73
   -27
  0
SEQEND
  5
346
330
30B
100
AcDbEntity
  8
3D-GENM
  0
POLYLINE
  5
347
330
294
100
AcDbEntity
  8
3D-GENM
100
AcDbPolyFaceMesh
 66
     1
 10
0.0
 20
0.0
 30
0.0
 70
    64
 71
    14
 72
    12
1001
REVIT
1002
{
1070
     4
1000
5277
1002
}
1002
{
1070
     2
1000
-2000151
1002
}
  0
VERTEX
  5
348
330
347
100
AcDbEntity
  8
3D-GENM
100
AcDbVertex
100
AcDbPolyFaceMeshVertex
 10
6.131605625152587
 20
-9.531249761581419
 30
7.220573902130126
 70
   192
  0
VERTEX
  5
349
330
347
100
AcDbEntity
  8
3D-GENM
100
AcDbVertex
100
AcDbPolyFaceMeshVertex
 10
6.188444137573241
 20
-9.531249761581419
 30
7.204828977584837
 70
   192
  0
VERTEX
  5
34A
330
347
100
AcDbEntity
  8
3D-GENM
100
AcDbVertex
100
AcDbPolyFaceMeshVertex
 10
6.240011930465697
 20
-9.531249761581419
 30
7.176206588745116
 70
   192
  0
VERTEX
  5
34B
330
347
100
AcDbEntity
  8
3D-GENM
100
AcDbVertex
100
AcDbPolyFaceMeshVertex
 10
6.283439397811888
 20
-9.531249761581419
 30
7.136300325393675
 70
   192
  0
VERTEX
  5
34C
330
347
100
AcDbEntity
  8
3D-GENM
100
AcDbVertex
100
AcDbPolyFaceMeshVertex
 10
6.316309690475462
 20
-9.531249761581419
 30
7.087331056594847
 70
   192
  0
VERTEX
  5
34D
330
347
100
AcDbEntity
  8
3D-GENM
100
AcDbVertex
100
AcDbPolyFaceMeshVertex
 10
6.336793184280394
 20
-9.531249761581419
 30
7.032023906707762
 70
   192
  0
VERTEX
  5
34E
330
347
100
AcDbEntity
  8
3D-GENM
100
AcDbVertex
100
AcDbPolyFaceMeshVertex
 10
6.34374976158142
 20
-9.531249761581419
 30
6.973456621170043
 70
   192
  0
VERTEX
  5
34F
330
347
100
AcDbEntity
  8
3D-GENM
100
AcDbVertex
100
AcDbPolyFaceMeshVertex
 10
6.34374976158142
 20
9.281249999999998
 30
6.973456621170043
 70
   192
  0
VERTEX
  5
350
330
347
100
AcDbEntity
  8
3D-GENM
100
AcDbVertex
100
AcDbPolyFaceMeshVertex
 10
6.330860137939452
 20
9.493258237838743
 30
7.052694797515868
 70
   192
  0
VERTEX
  5
351
330
347
100
AcDbEntity
  8
3D-GENM
100
AcDbVertex
100
AcDbPolyFaceMeshVertex
 10
6.291839361190795
 20
9.70432662963867
 30
7.125971317291258
 70
   192
  0
VERTEX
  5
352
330
347
100
AcDbEntity
  8
3D-GENM
100
AcDbVertex
100
AcDbPolyFaceMeshVertex
 10
6.225673913955687
 20
9.913171291351316
 30
7.185815334320067
 70
   192
  0
VERTEX
  5
353
330
347
100
AcDbEntity
  8
3D-GENM
100
AcDbVertex
100
AcDbPolyFaceMeshVertex
 10
6.131605625152587
 20
10.11641407012939
 30
7.220573902130126
 70
   192
  0
VERTEX
  5
354
330
347
100
AcDbEntity
  8
3D-GENM
100
AcDbVertex
100
AcDbPolyFaceMeshVertex
 10
6.131605625152587
 20
-3.739992141723632
 30
7.220573902130126
 70
   192
  0
VERTEX
  5
355
330
347
100
AcDbEntity
  8
3D-GENM
100
AcDbVertex
100
AcDbPolyFaceMeshVertex
 10
6.34374976158142
 20
-0.1250000037252903
 30
6.973456621170043
 70
   192
  0
VERTEX
  5
356
330
347
100
AcDbEntity
  8
3D-GENM
100
AcDbFaceRecord
 10
0.0
 20
0.0
 30
0.0
 70
   128
 71
   -13
 72
   -14
 73
   -11
  0
VERTEX
  5
357
330
347
100
AcDbEntity
  8
3D-GENM
100
AcDbFaceRecord
 10
0.0
 20
0.0
 30
0.0
 70
   128
 71
   -13
 72
     3
 73
    -4
  0
VERTEX
  5
358
330
347
100
AcDbEntity
  8
3D-GENM
100
AcDbFaceRecord
 10
0.0
 20
0.0
 30
0.0
 70
   128
 71
     1
 72
    -2
 73
    13
  0
VERTEX
  5
359
330
347
100
AcDbEntity
  8
3D-GENM
100
AcDbFaceRecord
 10
0.0
 20
0.0
 30
0.0
 70
   128
 71
    -3
 72
   -13
 73
     2
  0
VERTEX
  5
35A
330
347
100
AcDbEntity
  8
3D-GENM
100
AcDbFaceRecord
 10
0.0
 20
0.0
 30
0.0
 70
   128
 71
    11
 72
    12
 73
   -13
  0
VERTEX
  5
35B
330
347
100
AcDbEntity
  8
3D-GENM
100
AcDbFaceRecord
 10
0.0
 20
0.0
 30
0.0
 70
   128
 71
   -13
 72
     4
 73
    -5
  0
VERTEX
  5
35C
330
347
100
AcDbEntity
  8
3D-GENM
100
AcDbFaceRecord
 10
0.0
 20
0.0
 30
0.0
 70
   128
 71
     7
 72
   -14
 73
     6
  0
VERTEX
  5
35D
330
347
100
AcDbEntity
  8
3D-GENM
100
AcDbFaceRecord
 10
0.0
 20
0.0
 30
0.0
 70
   128
 71
    14
 72
     8
 73
    -9
  0
VERTEX
  5
35E
330
347
100
AcDbEntity
  8
3D-GENM
100
AcDbFaceRecord
 10
0.0
 20
0.0
 30
0.0
 70
   128
 71
   -14
 72
    10
 73
   -11
  0
VERTEX
  5
35F
330
347
100
AcDbEntity
  8
3D-GENM
100
AcDbFaceRecord
 10
0.0
 20
0.0
 30
0.0
 70
   128
 71
     9
 72
   -10
 73
   -14
  0
VERTEX
  5
360
330
347
100
AcDbEntity
  8
3D-GENM
100
AcDbFaceRecord
 10
0.0
 20
0.0
 30
0.0
 70
   128
 71
   -14
 72
     5
 73
    -6
  0
VERTEX
  5
361
330
347
100
AcDbEntity
  8
3D-GENM
100
AcDbFaceRecord
 10
0.0
 20
0.0
 30
0.0
 70
   128
 71
   -14
 72
   -13
 73
    -5
  0
SEQEND
  5
362
330
347
100
AcDbEntity
  8
3D-GENM
  0
POLYLINE
  5
363
330
294
100
AcDbEntity
  8
3D-GENM
100
AcDbPolyFaceMesh
 66
     1
 10
0.0
 20
0.0
 30
0.0
 70
    64
 71
    16
 72
    14
1001
REVIT
1002
{
1070
     4
1000
5277
1002
}
1002
{
1070
     2
1000
-2000151
1002
}
  0
VERTEX
  5
364
330
363
100
AcDbEntity
  8
3D-GENM
100
AcDbVertex
100
AcDbPolyFaceMeshVertex
 10
-6.34374976158142
 20
9.281249999999998
 30
5.249999999999999
 70
   192
  0
VERTEX
  5
365
330
363
100
AcDbEntity
  8
3D-GENM
100
AcDbVertex
100
AcDbPolyFaceMeshVertex
 10
-6.34374976158142
 20
9.281249999999998
 30
6.973456621170043
 70
   192
  0
VERTEX
  5
366
330
363
100
AcDbEntity
  8
3D-GENM
100
AcDbVertex
100
AcDbPolyFaceMeshVertex
 10
-6.330860137939452
 20
9.493258237838743
 30
7.052694797515868
 70
   192
  0
VERTEX
  5
367
330
363
100
AcDbEntity
  8
3D-GENM
100
AcDbVertex
100
AcDbPolyFaceMeshVertex
 10
-6.291839361190795
 20
9.70432662963867
 30
7.125971317291258
 70
   192
  0
VERTEX
  5
368
330
363
100
AcDbEntity
  8
3D-GENM
100
AcDbVertex
100
AcDbPolyFaceMeshVertex
 10
-6.225673913955687
 20
9.913171291351316
 30
7.185815334320067
 70
   192
  0
VERTEX
  5
369
330
363
100
AcDbEntity
  8
3D-GENM
100
AcDbVertex
100
AcDbPolyFaceMeshVertex
 10
-6.131605625152587
 20
10.11641407012939
 30
7.220573902130126
 70
   192
  0
VERTEX
  5
36A
330
363
100
AcDbEntity
  8
3D-GENM
100
AcDbVertex
100
AcDbPolyFaceMeshVertex
 10
-5.854299902915953
 20
10.49513339996337
 30
7.262072324752806
 70
   192
  0
VERTEX
  5
36B
330
363
100
AcDbEntity
  8
3D-GENM
100
AcDbVertex
100
AcDbPolyFaceMeshVertex
 10
-5.487458467483519
 20
10.78583765029907
 30
7.313958406448363
 70
   192
  0
VERTEX
  5
36C
330
363
100
AcDbEntity
  8
3D-GENM
100
AcDbVertex
100
AcDbPolyFaceMeshVertex
 10
-5.057193160057066
 20
10.9687693119049
 30
7.370462179183959
 70
   192
  0
VERTEX
  5
36D
330
363
100
AcDbEntity
  8
3D-GENM
100
AcDbVertex
100
AcDbPolyFaceMeshVertex
 10
-4.593749999999999
 20
11.03124976158142
 30
7.426086902618407
 70
   192
  0
VERTEX
  5
36E
330
363
100
AcDbEntity
  8
3D-GENM
100
AcDbVertex
100
AcDbPolyFaceMeshVertex
 10
-4.593749999999999
 20
11.03124976158142
 30
5.249999999999999
 70
   192
  0
VERTEX
  5
36F
330
363
100
AcDbEntity
  8
3D-GENM
100
AcDbVertex
100
AcDbPolyFaceMeshVertex
 10
-5.046683192253111
 20
10.9716203212738
 30
5.249999999999999
 70
   192
  0
VERTEX
  5
370
330
363
100
AcDbEntity
  8
3D-GENM
100
AcDbVertex
100
AcDbPolyFaceMeshVertex
 10
-5.468749880790709
 20
10.79679465293884
 30
5.249999999999999
 70
   192
  0
VERTEX
  5
371
330
363
100
AcDbEntity
  8
3D-GENM
100
AcDbVertex
100
AcDbPolyFaceMeshVertex
 10
-5.831186771392821
 20
10.51868677139282
 30
5.249999999999999
 70
   192
  0
VERTEX
  5
372
330
363
100
AcDbEntity
  8
3D-GENM
100
AcDbVertex
100
AcDbPolyFaceMeshVertex
 10
-6.109294652938841
 20
10.15625023841858
 30
5.249999999999999
 70
   192
  0
VERTEX
  5
373
330
363
100
AcDbEntity
  8
3D-GENM
100
AcDbVertex
100
AcDbPolyFaceMeshVertex
 10
-6.284120321273802
 20
9.734183549880979
 30
5.249999999999999
 70
   192
  0
VERTEX
  5
374
330
363
100
AcDbEntity
  8
3D-GENM
100
AcDbFaceRecord
 10
0.0
 20
0.0
 30
0.0
 70
   128
 71
   -16
 72
     3
 73
    -4
  0
VERTEX
  5
375
330
363
100
AcDbEntity
  8
3D-GENM
100
AcDbFaceRecord
 10
0.0
 20
0.0
 30
0.0
 70
   128
 71
     4
 72
    -5
 73
   -16
  0
VERTEX
  5
376
330
363
100
AcDbEntity
  8
3D-GENM
100
AcDbFaceRecord
 10
0.0
 20
0.0
 30
0.0
 70
   128
 71
    -6
 72
   -15
 73
     5
  0
VERTEX
  5
377
330
363
100
AcDbEntity
  8
3D-GENM
100
AcDbFaceRecord
 10
0.0
 20
0.0
 30
0.0
 70
   128
 71
     2
 72
    -3
 73
     1
  0
VERTEX
  5
378
330
363
100
AcDbEntity
  8
3D-GENM
100
AcDbFaceRecord
 10
0.0
 20
0.0
 30
0.0
 70
   128
 71
    -1
 72
    -3
 73
    16
  0
VERTEX
  5
379
330
363
100
AcDbEntity
  8
3D-GENM
100
AcDbFaceRecord
 10
0.0
 20
0.0
 30
0.0
 70
   128
 71
    -5
 72
    15
 73
   -16
  0
VERTEX
  5
37A
330
363
100
AcDbEntity
  8
3D-GENM
100
AcDbFaceRecord
 10
0.0
 20
0.0
 30
0.0
 70
   128
 71
     6
 72
    -7
 73
   -15
  0
VERTEX
  5
37B
330
363
100
AcDbEntity
  8
3D-GENM
100
AcDbFaceRecord
 10
0.0
 20
0.0
 30
0.0
 70
   128
 71
     7
 72
    -8
 73
   -14
  0
VERTEX
  5
37C
330
363
100
AcDbEntity
  8
3D-GENM
100
AcDbFaceRecord
 10
0.0
 20
0.0
 30
0.0
 70
   128
 71
     8
 72
    -9
 73
   -13
  0
VERTEX
  5
37D
330
363
100
AcDbEntity
  8
3D-GENM
100
AcDbFaceRecord
 10
0.0
 20
0.0
 30
0.0
 70
   128
 71
   -11
 72
     9
 73
    10
  0
VERTEX
  5
37E
330
363
100
AcDbEntity
  8
3D-GENM
100
AcDbFaceRecord
 10
0.0
 20
0.0
 30
0.0
 70
   128
 71
    13
 72
   -14
 73
    -8
  0
VERTEX
  5
37F
330
363
100
AcDbEntity
  8
3D-GENM
100
AcDbFaceRecord
 10
0.0
 20
0.0
 30
0.0
 70
   128
 71
    11
 72
   -12
 73
    -9
  0
VERTEX
  5
380
330
363
100
AcDbEntity
  8
3D-GENM
100
AcDbFaceRecord
 10
0.0
 20
0.0
 30
0.0
 70
   128
 71
   -13
 72
    -9
 73
    12
  0
VERTEX
  5
381
330
363
100
AcDbEntity
  8
3D-GENM
100
AcDbFaceRecord
 10
0.0
 20
0.0
 30
0.0
 70
   128
 71
    -7
 72
    14
 73
   -15
  0
SEQEND
  5
382
330
363
100
AcDbEntity
  8
3D-GENM
  0
POLYLINE
  5
383
330
294
100
AcDbEntity
  8
3D-GENM
100
AcDbPolyFaceMesh
 66
     1
 10
0.0
 20
0.0
 30
0.0
 70
    64
 71
    16
 72
    14
1001
REVIT
1002
{
1070
     4
1000
5277
1002
}
1002
{
1070
     2
1000
-2000151
1002
}
  0
VERTEX
  5
384
330
383
100
AcDbEntity
  8
3D-GENM
100
AcDbVertex
100
AcDbPolyFaceMeshVertex
 10
6.34374976158142
 20
9.281249999999998
 30
6.973456621170043
 70
   192
  0
VERTEX
  5
385
330
383
100
AcDbEntity
  8
3D-GENM
100
AcDbVertex
100
AcDbPolyFaceMeshVertex
 10
6.34374976158142
 20
9.281249999999998
 30
5.249999999999999
 70
   192
  0
VERTEX
  5
386
330
383
100
AcDbEntity
  8
3D-GENM
100
AcDbVertex
100
AcDbPolyFaceMeshVertex
 10
6.284120321273802
 20
9.734183549880979
 30
5.249999999999999
 70
   192
  0
VERTEX
  5
387
330
383
100
AcDbEntity
  8
3D-GENM
100
AcDbVertex
100
AcDbPolyFaceMeshVertex
 10
6.109294652938841
 20
10.15625023841858
 30
5.249999999999999
 70
   192
  0
VERTEX
  5
388
330
383
100
AcDbEntity
  8
3D-GENM
100
AcDbVertex
100
AcDbPolyFaceMeshVertex
 10
5.831186771392821
 20
10.51868677139282
 30
5.249999999999999
 70
   192
  0
VERTEX
  5
389
330
383
100
AcDbEntity
  8
3D-GENM
100
AcDbVertex
100
AcDbPolyFaceMeshVertex
 10
5.468749880790709
 20
10.79679465293884
 30
5.249999999999999
 70
   192
  0
VERTEX
  5
38A
330
383
100
AcDbEntity
  8
3D-GENM
100
AcDbVertex
100
AcDbPolyFaceMeshVertex
 10
5.046683192253111
 20
10.9716203212738
 30
5.249999999999999
 70
   192
  0
VERTEX
  5
38B
330
383
100
AcDbEntity
  8
3D-GENM
100
AcDbVertex
100
AcDbPolyFaceMeshVertex
 10
4.593749999999999
 20
11.03124976158142
 30
5.249999999999999
 70
   192
  0
VERTEX
  5
38C
330
383
100
AcDbEntity
  8
3D-GENM
100
AcDbVertex
100
AcDbPolyFaceMeshVertex
 10
4.593749999999999
 20
11.03124976158142
 30
7.426086902618407
 70
   192
  0
VERTEX
  5
38D
330
383
100
AcDbEntity
  8
3D-GENM
100
AcDbVertex
100
AcDbPolyFaceMeshVertex
 10
5.057193160057066
 20
10.9687693119049
 30
7.370462179183959
 70
   192
  0
VERTEX
  5
38E
330
383
100
AcDbEntity
  8
3D-GENM
100
AcDbVertex
100
AcDbPolyFaceMeshVertex
 10
5.487458467483519
 20
10.78583765029907
 30
7.313958406448363
 70
   192
  0
VERTEX
  5
38F
330
383
100
AcDbEntity
  8
3D-GENM
100
AcDbVertex
100
AcDbPolyFaceMeshVertex
 10
5.854299902915953
 20
10.49513339996337
 30
7.262072324752806
 70
   192
  0
VERTEX
  5
390
330
383
100
AcDbEntity
  8
3D-GENM
100
AcDbVertex
100
AcDbPolyFaceMeshVertex
 10
6.131605625152587
 20
10.11641407012939
 30
7.220573902130126
 70
   192
  0
VERTEX
  5
391
330
383
100
AcDbEntity
  8
3D-GENM
100
AcDbVertex
100
AcDbPolyFaceMeshVertex
 10
6.225673913955687
 20
9.913171291351316
 30
7.185815334320067
 70
   192
  0
VERTEX
  5
392
330
383
100
AcDbEntity
  8
3D-GENM
100
AcDbVertex
100
AcDbPolyFaceMeshVertex
 10
6.291839361190795
 20
9.70432662963867
 30
7.125971317291258
 70
   192
  0
VERTEX
  5
393
330
383
100
AcDbEntity
  8
3D-GENM
100
AcDbVertex
100
AcDbPolyFaceMeshVertex
 10
6.330860137939452
 20
9.493258237838743
 30
7.052694797515868
 70
   192
  0
VERTEX
  5
394
330
383
100
AcDbEntity
  8
3D-GENM
100
AcDbFaceRecord
 10
0.0
 20
0.0
 30
0.0
 70
   128
 71
     8
 72
     9
 73
   -10
  0
VERTEX
  5
395
330
383
100
AcDbEntity
  8
3D-GENM
100
AcDbFaceRecord
 10
0.0
 20
0.0
 30
0.0
 70
   128
 71
    11
 72
   -12
 73
    -5
  0
VERTEX
  5
396
330
383
100
AcDbEntity
  8
3D-GENM
100
AcDbFaceRecord
 10
0.0
 20
0.0
 30
0.0
 70
   128
 71
    -6
 72
    10
 73
   -11
  0
VERTEX
  5
397
330
383
100
AcDbEntity
  8
3D-GENM
100
AcDbFaceRecord
 10
0.0
 20
0.0
 30
0.0
 70
   128
 71
     7
 72
    -8
 73
   -10
  0
VERTEX
  5
398
330
383
100
AcDbEntity
  8
3D-GENM
100
AcDbFaceRecord
 10
0.0
 20
0.0
 30
0.0
 70
   128
 71
     5
 72
    -6
 73
   -11
  0
VERTEX
  5
399
330
383
100
AcDbEntity
  8
3D-GENM
100
AcDbFaceRecord
 10
0.0
 20
0.0
 30
0.0
 70
   128
 71
    -7
 72
   -10
 73
     6
  0
VERTEX
  5
39A
330
383
100
AcDbEntity
  8
3D-GENM
100
AcDbFaceRecord
 10
0.0
 20
0.0
 30
0.0
 70
   128
 71
   -12
 72
     4
 73
    -5
  0
VERTEX
  5
39B
330
383
100
AcDbEntity
  8
3D-GENM
100
AcDbFaceRecord
 10
0.0
 20
0.0
 30
0.0
 70
   128
 71
    -4
 72
    13
 73
   -14
  0
VERTEX
  5
39C
330
383
100
AcDbEntity
  8
3D-GENM
100
AcDbFaceRecord
 10
0.0
 20
0.0
 30
0.0
 70
   128
 71
    -3
 72
    14
 73
   -15
  0
VERTEX
  5
39D
330
383
100
AcDbEntity
  8
3D-GENM
100
AcDbFaceRecord
 10
0.0
 20
0.0
 30
0.0
 70
   128
 71
    -3
 72
    15
 73
   -16
  0
VERTEX
  5
39E
330
383
100
AcDbEntity
  8
3D-GENM
100
AcDbFaceRecord
 10
0.0
 20
0.0
 30
0.0
 70
   128
 71
    -4
 72
   -14
 73
     3
  0
VERTEX
  5
39F
330
383
100
AcDbEntity
  8
3D-GENM
100
AcDbFaceRecord
 10
0.0
 20
0.0
 30
0.0
 70
   128
 71
     2
 72
    -3
 73
   -16
  0
VERTEX
  5
3A0
330
383
100
AcDbEntity
  8
3D-GENM
100
AcDbFaceRecord
 10
0.0
 20
0.0
 30
0.0
 70
   128
 71
     1
 72
    -2
 73
    16
  0
VERTEX
  5
3A1
330
383
100
AcDbEntity
  8
3D-GENM
100
AcDbFaceRecord
 10
0.0
 20
0.0
 30
0.0
 70
   128
 71
   -13
 72
    -4
 73
    12
  0
SEQEND
  5
3A2
330
383
100
AcDbEntity
  8
3D-GENM
  0
POLYLINE
  5
3A3
330
294
100
AcDbEntity
  8
3D-GENM
100
AcDbPolyFaceMesh
 66
     1
 10
0.0
 20
0.0
 30
0.0
 70
    64
 71
     6
 72
     2
1001
REVIT
1002
{
1070
     4
1000
5282
1002
}
1002
{
1070
     2
1000
-2000151
1002
}
  0
VERTEX
  5
3A4
330
3A3
100
AcDbEntity
  8
3D-GENM
100
AcDbVertex
100
AcDbPolyFaceMeshVertex
 10
3.937499999999999
 20
8.843750238418577
 30
5.249999999999999
 70
   192
  0
VERTEX
  5
3A5
330
3A3
100
AcDbEntity
  8
3D-GENM
100
AcDbVertex
100
AcDbPolyFaceMeshVertex
 10
3.937499999999999
 20
8.843750238418577
 30
7.337620496749877
 70
   192
  0
VERTEX
  5
3A6
330
3A3
100
AcDbEntity
  8
3D-GENM
100
AcDbVertex
100
AcDbPolyFaceMeshVertex
 10
3.937499999999999
 20
8.934963226318357
 30
7.495606899261473
 70
   192
  0
VERTEX
  5
3A7
330
3A3
100
AcDbEntity
  8
3D-GENM
100
AcDbVertex
100
AcDbPolyFaceMeshVertex
 10
3.937499999999999
 20
2.033786416053771
 30
7.495606899261473
 70
   192
  0
VERTEX
  5
3A8
330
3A3
100
AcDbEntity
  8
3D-GENM
100
AcDbVertex
100
AcDbPolyFaceMeshVertex
 10
3.937499999999999
 20
2.124999940395354
 30
7.337620496749877
 70
   192
  0
VERTEX
  5
3A9
330
3A3
100
AcDbEntity
  8
3D-GENM
100
AcDbVertex
100
AcDbPolyFaceMeshVertex
 10
3.937499999999999
 20
2.124999940395354
 30
5.249999999999999
 70
   192
  0
VERTEX
  5
3AA
330
3A3
100
AcDbEntity
  8
3D-GENM
100
AcDbFaceRecord
 10
0.0
 20
0.0
 30
0.0
 70
   128
 71
     1
 72
     6
 73
    -5
 74
     2
  0
VERTEX
  5
3AB
330
3A3
100
AcDbEntity
  8
3D-GENM
100
AcDbFaceRecord
 10
0.0
 20
0.0
 30
0.0
 70
   128
 71
     5
 72
     4
 73
     3
 74
    -2
  0
SEQEND
  5
3AC
330
3A3
100
AcDbEntity
  8
3D-GENM
  0
POLYLINE
  5
3AD
330
294
100
AcDbEntity
  8
3D-GENM
100
AcDbPolyFaceMesh
 66
     1
 10
0.0
 20
0.0
 30
0.0
 70
    64
 71
     6
 72
     2
1001
REVIT
1002
{
1070
     4
1000
5282
1002
}
1002
{
1070
     2
1000
-2000151
1002
}
  0
VERTEX
  5
3AE
330
3AD
100
AcDbEntity
  8
3D-GENM
100
AcDbVertex
100
AcDbPolyFaceMeshVertex
 10
-3.937499999999999
 20
2.124999940395354
 30
5.249999999999999
 70
   192
  0
VERTEX
  5
3AF
330
3AD
100
AcDbEntity
  8
3D-GENM
100
AcDbVertex
100
AcDbPolyFaceMeshVertex
 10
-3.937499999999999
 20
2.124999940395354
 30
7.337620496749877
 70
   192
  0
VERTEX
  5
3B0
330
3AD
100
AcDbEntity
  8
3D-GENM
100
AcDbVertex
100
AcDbPolyFaceMeshVertex
 10
-3.937499999999999
 20
2.033786416053771
 30
7.495606899261473
 70
   192
  0
VERTEX
  5
3B1
330
3AD
100
AcDbEntity
  8
3D-GENM
100
AcDbVertex
100
AcDbPolyFaceMeshVertex
 10
-3.937499999999999
 20
8.934963226318357
 30
7.495606899261473
 70
   192
  0
VERTEX
  5
3B2
330
3AD
100
AcDbEntity
  8
3D-GENM
100
AcDbVertex
100
AcDbPolyFaceMeshVertex
 10
-3.937499999999999
 20
8.843750238418577
 30
7.337620496749877
 70
   192
  0
VERTEX
  5
3B3
330
3AD
100
AcDbEntity
  8
3D-GENM
100
AcDbVertex
100
AcDbPolyFaceMeshVertex
 10
-3.937499999999999
 20
8.843750238418577
 30
5.249999999999999
 70
   192
  0
VERTEX
  5
3B4
330
3AD
100
AcDbEntity
  8
3D-GENM
100
AcDbFaceRecord
 10
0.0
 20
0.0
 30
0.0
 70
   128
 71
     1
 72
     6
 73
    -5
 74
     2
  0
VERTEX
  5
3B5
330
3AD
100
AcDbEntity
  8
3D-GENM
100
AcDbFaceRecord
 10
0.0
 20
0.0
 30
0.0
 70
   128
 71
     5
 72
     4
 73
     3
 74
    -2
  0
SEQEND
  5
3B6
330
3AD
100
AcDbEntity
  8
3D-GENM
  0
POLYLINE
  5
3B7
330
294
100
AcDbEntity
  8
3D-GENM
100
AcDbPolyFaceMesh
 66
     1
 10
0.0
 20
0.0
 30
0.0
 70
    64
 71
     4
 72
     1
1001
REVIT
1002
{
1070
     4
1000
5282
1002
}
1002
{
1070
     2
1000
-2000151
1002
}
  0
VERTEX
  5
3B8
330
3B7
100
AcDbEntity
  8
3D-GENM
100
AcDbVertex
100
AcDbPolyFaceMeshVertex
 10
3.937499999999999
 20
8.843750238418577
 30
5.249999999999999
 70
   192
  0
VERTEX
  5
3B9
330
3B7
100
AcDbEntity
  8
3D-GENM
100
AcDbVertex
100
AcDbPolyFaceMeshVertex
 10
-3.937499999999999
 20
8.843750238418577
 30
5.249999999999999
 70
   192
  0
VERTEX
  5
3BA
330
3B7
100
AcDbEntity
  8
3D-GENM
100
AcDbVertex
100
AcDbPolyFaceMeshVertex
 10
-3.937499999999999
 20
8.843750238418577
 30
7.337620496749877
 70
   192
  0
VERTEX
  5
3BB
330
3B7
100
AcDbEntity
  8
3D-GENM
100
AcDbVertex
100
AcDbPolyFaceMeshVertex
 10
3.937499999999999
 20
8.843750238418577
 30
7.337620496749877
 70
   192
  0
VERTEX
  5
3BC
330
3B7
100
AcDbEntity
  8
3D-GENM
100
AcDbFaceRecord
 10
0.0
 20
0.0
 30
0.0
 70
   128
 71
     2
 72
     1
 73
     4
 74
     3
  0
SEQEND
  5
3BD
330
3B7
100
AcDbEntity
  8
3D-GENM
  0
POLYLINE
  5
3BE
330
294
100
AcDbEntity
  8
3D-GENM
100
AcDbPolyFaceMesh
 66
     1
 10
0.0
 20
0.0
 30
0.0
 70
    64
 71
     5
 72
     3
1001
REVIT
1002
{
1070
     4
1000
5282
1002
}
1002
{
1070
     2
1000
-2000151
1002
}
  0
VERTEX
  5
3BF
330
3BE
100
AcDbEntity
  8
3D-GENM
100
AcDbVertex
100
AcDbPolyFaceMeshVertex
 10
-3.937499999999999
 20
8.934963226318357
 30
7.495606899261473
 70
   192
  0
VERTEX
  5
3C0
330
3BE
100
AcDbEntity
  8
3D-GENM
100
AcDbVertex
100
AcDbPolyFaceMeshVertex
 10
0.0000000000003211
 20
9.045753479003904
 30
7.687499999999999
 70
   192
  0
VERTEX
  5
3C1
330
3BE
100
AcDbEntity
  8
3D-GENM
100
AcDbVertex
100
AcDbPolyFaceMeshVertex
 10
3.937499999999999
 20
8.934963226318357
 30
7.495606899261473
 70
   192
  0
VERTEX
  5
3C2
330
3BE
100
AcDbEntity
  8
3D-GENM
100
AcDbVertex
100
AcDbPolyFaceMeshVertex
 10
3.937499999999999
 20
8.843750238418577
 30
7.337620496749877
 70
   192
  0
VERTEX
  5
3C3
330
3BE
100
AcDbEntity
  8
3D-GENM
100
AcDbVertex
100
AcDbPolyFaceMeshVertex
 10
-3.937499999999999
 20
8.843750238418577
 30
7.337620496749877
 70
   192
  0
VERTEX
  5
3C4
330
3BE
100
AcDbEntity
  8
3D-GENM
100
AcDbFaceRecord
 10
0.0
 20
0.0
 30
0.0
 70
   128
 71
    -2
 72
     4
 73
     3
  0
VERTEX
  5
3C5
330
3BE
100
AcDbEntity
  8
3D-GENM
100
AcDbFaceRecord
 10
0.0
 20
0.0
 30
0.0
 70
   128
 71
     1
 72
    -5
 73
     2
  0
VERTEX
  5
3C6
330
3BE
100
AcDbEntity
  8
3D-GENM
100
AcDbFaceRecord
 10
0.0
 20
0.0
 30
0.0
 70
   128
 71
    -4
 72
    -2
 73
     5
  0
SEQEND
  5
3C7
330
3BE
100
AcDbEntity
  8
3D-GENM
  0
POLYLINE
  5
3C8
330
294
100
AcDbEntity
  8
3D-GENM
100
AcDbPolyFaceMesh
 66
     1
 10
0.0
 20
0.0
 30
0.0
 70
    64
 71
     5
 72
     3
1001
REVIT
1002
{
1070
     4
1000
5282
1002
}
1002
{
1070
     2
1000
-2000151
1002
}
  0
VERTEX
  5
3C9
330
3C8
100
AcDbEntity
  8
3D-GENM
100
AcDbVertex
100
AcDbPolyFaceMeshVertex
 10
3.937499999999999
 20
2.033786416053771
 30
7.495606899261473
 70
   192
  0
VERTEX
  5
3CA
330
3C8
100
AcDbEntity
  8
3D-GENM
100
AcDbVertex
100
AcDbPolyFaceMeshVertex
 10
0.0000000000002152
 20
1.922996878623962
 30
7.687499999999999
 70
   192
  0
VERTEX
  5
3CB
330
3C8
100
AcDbEntity
  8
3D-GENM
100
AcDbVertex
100
AcDbPolyFaceMeshVertex
 10
-3.937499999999999
 20
2.033786416053771
 30
7.495606899261473
 70
   192
  0
VERTEX
  5
3CC
330
3C8
100
AcDbEntity
  8
3D-GENM
100
AcDbVertex
100
AcDbPolyFaceMeshVertex
 10
-3.937499999999999
 20
2.124999940395354
 30
7.337620496749877
 70
   192
  0
VERTEX
  5
3CD
330
3C8
100
AcDbEntity
  8
3D-GENM
100
AcDbVertex
100
AcDbPolyFaceMeshVertex
 10
3.937499999999999
 20
2.124999940395354
 30
7.337620496749877
 70
   192
  0
VERTEX
  5
3CE
330
3C8
100
AcDbEntity
  8
3D-GENM
100
AcDbFaceRecord
 10
0.0
 20
0.0
 30
0.0
 70
   128
 71
     2
 72
     1
 73
    -5
  0
VERTEX
  5
3CF
330
3C8
100
AcDbEntity
  8
3D-GENM
100
AcDbFaceRecord
 10
0.0
 20
0.0
 30
0.0
 70
   128
 71
     4
 72
     3
 73
    -2
  0
VERTEX
  5
3D0
330
3C8
100
AcDbEntity
  8
3D-GENM
100
AcDbFaceRecord
 10
0.0
 20
0.0
 30
0.0
 70
   128
 71
     5
 72
    -4
 73
    -2
  0
SEQEND
  5
3D1
330
3C8
100
AcDbEntity
  8
3D-GENM
  0
POLYLINE
  5
3D2
330
294
100
AcDbEntity
  8
3D-GENM
100
AcDbPolyFaceMesh
 66
     1
 10
0.0
 20
0.0
 30
0.0
 70
    64
 71
     4
 72
     1
1001
REVIT
1002
{
1070
     4
1000
5282
1002
}
1002
{
1070
     2
1000
-2000151
1002
}
  0
VERTEX
  5
3D3
330
3D2
100
AcDbEntity
  8
3D-GENM
100
AcDbVertex
100
AcDbPolyFaceMeshVertex
 10
-3.937499999999999
 20
2.124999940395354
 30
5.249999999999999
 70
   192
  0
VERTEX
  5
3D4
330
3D2
100
AcDbEntity
  8
3D-GENM
100
AcDbVertex
100
AcDbPolyFaceMeshVertex
 10
3.937499999999999
 20
2.124999940395354
 30
5.249999999999999
 70
   192
  0
VERTEX
  5
3D5
330
3D2
100
AcDbEntity
  8
3D-GENM
100
AcDbVertex
100
AcDbPolyFaceMeshVertex
 10
3.937499999999999
 20
2.124999940395354
 30
7.337620496749877
 70
   192
  0
VERTEX
  5
3D6
330
3D2
100
AcDbEntity
  8
3D-GENM
100
AcDbVertex
100
AcDbPolyFaceMeshVertex
 10
-3.937499999999999
 20
2.124999940395354
 30
7.337620496749877
 70
   192
  0
VERTEX
  5
3D7
330
3D2
100
AcDbEntity
  8
3D-GENM
100
AcDbFaceRecord
 10
0.0
 20
0.0
 30
0.0
 70
   128
 71
     4
 72
     3
 73
     2
 74
     1
  0
SEQEND
  5
3D8
330
3D2
100
AcDbEntity
  8
3D-GENM
  0
ENDBLK
  5
3DA
330
294
100
AcDbEntity
  8
0
100
AcDbBlockEnd
  0
ENDSEC
  0
SECTION
  2
ENTITIES
  0
INSERT
  5
1A9
330
75
100
AcDbEntity
  8
0
100
AcDbBlockReference
  2
FamilyGeomCombination_4858-_3D_
 10
0.0
 20
0.0
 30
0.0
  0
INSERT
  5
293
330
75
100
AcDbEntity
  8
0
100
AcDbBlockReference
  2
FamilyGeomCombination_10825-_3D_
 10
0.0
 20
0.0
 30
0.0
  0
INSERT
  5
3DB
330
75
100
AcDbEntity
  8
0
100
AcDbBlockReference
  2
FamilyGeomCombination_11304-_3D_
 10
0.0
 20
0.0
 30
0.0
  0
LINE
  5
3DC
330
75
100
AcDbEntity
  8
0
 62
    94
100
AcDbLine
 10
24.00000000000068
 20
3.216457707301249
 30
-0.0000000000003477
 11
-23.99999999999931
 21
3.216457707301249
 31
0.0000000000001439
1001
REVIT
1002
{
1070
     1
1000
5353
1002
}
1002
{
1070
     2
1000
-2007000
1002
}
1002
{
1070
     3
1000
-2007002
1002
}
  0
LINE
  5
3DD
330
75
100
AcDbEntity
  8
0
 62
    94
100
AcDbLine
 10
0.0000000000006821
 20
-20.78354229269875
 30
-0.0000000000001019
 11
0.0000000000006821
 21
27.21645770730125
 31
-0.0000000000001019
1001
REVIT
1002
{
1070
     1
1000
5353
1002
}
1002
{
1070
     2
1000
-2007000
1002
}
1002
{
1070
     3
1000
-2007002
1002
}
  0
CIRCLE
  5
3DE
330
75
100
AcDbEntity
  8
0
 62
    94
100
AcDbCircle
 10
-0.0000000000006821
 20
3.216457707301249
 30
0.0000000000001019
 40
24.0
210
-0.0000000000000102
220
0.0
230
-1.0
1001
REVIT
1002
{
1070
     1
1000
5353
1002
}
1002
{
1070
     2
1000
-2007000
1002
}
1002
{
1070
     3
1000
-2007002
1002
}
  0
ENDSEC
  0
SECTION
  2
OBJECTS
  0
DICTIONARY
  5
C
330
0
100
AcDbDictionary
281
     1
  3
ACAD_COLOR
350
6B
  3
ACAD_GROUP
350
D
  3
ACAD_LAYOUT
350
6A
  3
ACAD_MATERIAL
350
10
  3
ACAD_MLEADERSTYLE
350
6E
  3
ACAD_MLINESTYLE
350
67
  3
ACAD_PLOTSETTINGS
350
69
  3
ACAD_PLOTSTYLENAME
350
E
  3
ACAD_SCALELIST
350
3A
  3
ACAD_TABLESTYLE
350
6C
  3
ACAD_VISUALSTYLE
350
29
  3
ACDB_RECOMPOSE_DATA
350
3EF
  3
AcDbVariableDictionary
350
3E9
  3
REVIT_DICTIONARY
350
3E6
  0
DICTIONARY
  5
6B
102
{ACAD_REACTORS
330
C
102
}
330
C
100
AcDbDictionary
281
     1
  0
DICTIONARY
  5
D
102
{ACAD_REACTORS
330
C
102
}
330
C
100
AcDbDictionary
281
     1
  0
DICTIONARY
  5
6A
102
{ACAD_REACTORS
330
C
102
}
330
C
100
AcDbDictionary
281
     1
  3
Layout1
350
74
  3
Layout2
350
7C
  3
Model
350
78
  0
DICTIONARY
  5
10
102
{ACAD_REACTORS
330
C
102
}
330
C
100
AcDbDictionary
281
     1
  3
ByBlock
350
19
  3
ByLayer
350
11
  3
Global
350
21
  3
RevitMaterialDefinition5277
350
3E3
  3
RevitMaterialDefinition5282
350
3E0
  0
DICTIONARY
  5
6E
102
{ACAD_REACTORS
330
C
102
}
330
C
100
AcDbDictionary
281
     1
  3
Standard
350
6F
  0
DICTIONARY
  5
67
102
{ACAD_REACTORS
330
C
102
}
330
C
100
AcDbDictionary
281
     1
  3
Standard
350
68
  0
DICTIONARY
  5
69
102
{ACAD_REACTORS
330
C
102
}
330
C
100
AcDbDictionary
281
     1
  0
ACDBDICTIONARYWDFLT
  5
E
102
{ACAD_REACTORS
330
C
102
}
330
C
100
AcDbDictionary
281
     1
  3
Normal
350
F
100
AcDbDictionaryWithDefault
340
F
  0
DICTIONARY
  5
3A
102
{ACAD_REACTORS
330
C
102
}
330
C
100
AcDbDictionary
281
     1
  3
A0
350
3B
  3
A1
350
3C
  3
A2
350
3D
  3
A3
350
3E
  3
A4
350
3F
  3
A5
350
40
  3
A6
350
41
  3
A7
350
42
  3
A8
350
43
  3
A9
350
44
  3
B0
350
45
  3
B1
350
46
  3
B2
350
47
  3
B3
350
48
  3
B4
350
49
  3
B5
350
4A
  3
B6
350
4B
  3
B7
350
4C
  3
B8
350
4D
  3
B9
350
4E
  3
C0
350
4F
  3
C1
350
50
  3
C2
350
51
  3
C3
350
52
  3
C4
350
53
  3
C5
350
54
  3
C6
350
55
  3
C7
350
56
  3
C8
350
57
  3
C9
350
58
  3
D0
350
59
  3
D1
350
5A
  3
D2
350
5B
  0
DICTIONARY
  5
6C
102
{ACAD_REACTORS
330
C
102
}
330
C
100
AcDbDictionary
281
     1
  3
Standard
350
6D
  0
DICTIONARY
  5
29
102
{ACAD_REACTORS
330
C
102
}
330
C
100
AcDbDictionary
281
     1
  3
2dWireframe
350
2F
  3
3D Hidden
350
31
  3
3dWireframe
350
30
  3
Basic
350
2E
  3
Brighten
350
35
  3
ColorChange
350
39
  3
Conceptual
350
32
  3
Dim
350
34
  3
Facepattern
350
38
  3
Flat
350
2A
  3
FlatWithEdges
350
2B
  3
Gouraud
350
2C
  3
GouraudWithEdges
350
2D
  3
Linepattern
350
37
  3
Realistic
350
33
  3
Thicken
350
36
  0
XRECORD
  5
3EF
102
{ACAD_REACTORS
330
C
102
}
330
C
100
AcDbXrecord
280
     1
 90
        1
330
6D
  0
DICTIONARY
  5
3E9
102
{ACAD_REACTORS
330
C
102
}
330
C
100
AcDbDictionary
281
     1
  3
CANNOSCALE
350
3EC
  3
CMLEADERSTYLE
350
3EB
  3
CTABLESTYLE
350
3EA
  0
DICTIONARY
  5
3E6
102
{ACAD_REACTORS
330
C
102
}
330
C
100
AcDbDictionary
281
     1
  3
REVIT_CATEGORY_MAPPING
350
3E7
  3
REVIT_SUB_CATEGORY_MAPPING
350
3E8
  0
LAYOUT
  5
74
102
{ACAD_REACTORS
330
6A
102
}
330
6A
100
AcDbPlotSettings
  1

  2

  4

  6

 40
0.0
 41
0.0
 42
0.0
 43
0.0
 44
0.0
 45
0.0
 46
0.0
 47
0.0
 48
0.0
 49
0.0
140
0.0
141
0.0
142
1.0
143
1.0
 70
   688
 72
     0
 73
     0
 74
     5
  7

 75
    16
147
1.0
 76
     0
 77
     2
 78
   300
148
0.0
149
0.0
100
AcDbLayout
  1
Layout1
 70
     1
 71
     1
 10
0.0
 20
0.0
 11
12.0
 21
9.0
 12
0.0
 22
0.0
 32
0.0
 14
0.0
 24
0.0
 34
0.0
 15
0.0
 25
0.0
 35
0.0
146
0.0
 13
0.0
 23
0.0
 33
0.0
 16
1.0
 26
0.0
 36
0.0
 17
0.0
 27
1.0
 37
0.0
 76
     0
330
71
  0
LAYOUT
  5
7C
102
{ACAD_REACTORS
330
6A
102
}
330
6A
100
AcDbPlotSettings
  1

  2

  4

  6

 40
0.0
 41
0.0
 42
0.0
 43
0.0
 44
0.0
 45
0.0
 46
0.0
 47
0.0
 48
0.0
 49
0.0
140
0.0
141
0.0
142
1.0
143
1.0
 70
   688
 72
     0
 73
     0
 74
     5
  7

 75
    16
147
1.0
 76
     0
 77
     2
 78
   300
148
0.0
149
0.0
100
AcDbLayout
  1
Layout2
 70
     1
 71
     2
 10
0.0
 20
0.0
 11
12.0
 21
9.0
 12
0.0
 22
0.0
 32
0.0
 14
0.0
 24
0.0
 34
0.0
 15
0.0
 25
0.0
 35
0.0
146
0.0
 13
0.0
 23
0.0
 33
0.0
 16
1.0
 26
0.0
 36
0.0
 17
0.0
 27
1.0
 37
0.0
 76
     0
330
79
  0
LAYOUT
  5
78
102
{ACAD_REACTORS
330
6A
102
}
330
6A
100
AcDbPlotSettings
  1

  2

  4

  6

 40
0.0
 41
0.0
 42
0.0
 43
0.0
 44
0.0
 45
0.0
 46
0.0
 47
0.0
 48
0.0
 49
0.0
140
0.0
141
0.0
142
1.0
143
1.0
 70
  1712
 72
     0
 73
     0
 74
     0
  7

 75
     0
147
1.0
 76
     0
 77
     2
 78
   300
148
0.0
149
0.0
100
AcDbLayout
  1
Model
 70
     1
 71
     0
 10
0.0
 20
0.0
 11
12.0
 21
9.0
 12
0.0
 22
0.0
 32
0.0
 14
0.0
 24
0.0
 34
0.0
 15
0.0
 25
0.0
 35
0.0
146
0.0
 13
0.0
 23
0.0
 33
0.0
 16
1.0
 26
0.0
 36
0.0
 17
0.0
 27
1.0
 37
0.0
 76
     0
330
75
  0
MATERIAL
  5
19
102
{ACAD_XDICTIONARY
360
1A
102
}
102
{ACAD_REACTORS
330
10
102
}
330
10
100
AcDbMaterial
  1
ByBlock
 72
     0
 43
0.0208333333333333
 43
0.0
 43
0.0
 43
0.0
 43
0.0
 43
0.0208333333333333
 43
0.0
 43
0.0
 43
0.0
 43
0.0
 43
1.0
 43
0.0
 43
0.0
 43
0.0
 43
0.0
 43
1.0
 77
     0
 47
0.0208333333333333
 47
0.0
 47
0.0
 47
0.0
 47
0.0
 47
0.0208333333333333
 47
0.0
 47
0.0
 47
0.0
 47
0.0
 47
1.0
 47
0.0
 47
0.0
 47
0.0
 47
0.0
 47
1.0
171
     0
 49
0.0208333333333333
 49
0.0
 49
0.0
 49
0.0
 49
0.0
 49
0.0208333333333333
 49
0.0
 49
0.0
 49
0.0
 49
0.0
 49
1.0
 49
0.0
 49
0.0
 49
0.0
 49
0.0
 49
1.0
175
     0
142
0.0208333333333333
142
0.0
142
0.0
142
0.0
142
0.0
142
0.0208333333333333
142
0.0
142
0.0
142
0.0
142
0.0
142
1.0
142
0.0
142
0.0
142
0.0
142
0.0
142
1.0
179
     0
144
0.0208333333333333
144
0.0
144
0.0
144
0.0
144
0.0
144
0.0208333333333333
144
0.0
144
0.0
144
0.0
144
0.0
144
1.0
144
0.0
144
0.0
144
0.0
144
0.0
144
1.0
147
0.0208333333333333
147
0.0
147
0.0
147
0.0
147
0.0
147
0.0208333333333333
147
0.0
147
0.0
147
0.0
147
0.0
147
1.0
147
0.0
147
0.0
147
0.0
147
0.0
147
1.0
  0
MATERIAL
  5
11
102
{ACAD_XDICTIONARY
360
12
102
}
102
{ACAD_REACTORS
330
10
102
}
330
10
100
AcDbMaterial
  1
ByLayer
 72
     0
 43
0.0208333333333333
 43
0.0
 43
0.0
 43
0.0
 43
0.0
 43
0.0208333333333333
 43
0.0
 43
0.0
 43
0.0
 43
0.0
 43
1.0
 43
0.0
 43
0.0
 43
0.0
 43
0.0
 43
1.0
 77
     0
 47
0.0208333333333333
 47
0.0
 47
0.0
 47
0.0
 47
0.0
 47
0.0208333333333333
 47
0.0
 47
0.0
 47
0.0
 47
0.0
 47
1.0
 47
0.0
 47
0.0
 47
0.0
 47
0.0
 47
1.0
171
     0
 49
0.0208333333333333
 49
0.0
 49
0.0
 49
0.0
 49
0.0
 49
0.0208333333333333
 49
0.0
 49
0.0
 49
0.0
 49
0.0
 49
1.0
 49
0.0
 49
0.0
 49
0.0
 49
0.0
 49
1.0
175
     0
142
0.0208333333333333
142
0.0
142
0.0
142
0.0
142
0.0
142
0.0208333333333333
142
0.0
142
0.0
142
0.0
142
0.0
142
1.0
142
0.0
142
0.0
142
0.0
142
0.0
142
1.0
179
     0
144
0.0208333333333333
144
0.0
144
0.0
144
0.0
144
0.0
144
0.0208333333333333
144
0.0
144
0.0
144
0.0
144
0.0
144
1.0
144
0.0
144
0.0
144
0.0
144
0.0
144
1.0
147
0.0208333333333333
147
0.0
147
0.0
147
0.0
147
0.0
147
0.0208333333333333
147
0.0
147
0.0
147
0.0
147
0.0
147
1.0
147
0.0
147
0.0
147
0.0
147
0.0
147
1.0
  0
MATERIAL
  5
21
102
{ACAD_XDICTIONARY
360
22
102
}
102
{ACAD_REACTORS
330
10
102
}
330
10
100
AcDbMaterial
  1
Global
 72
     0
 43
0.0208333333333333
 43
0.0
 43
0.0
 43
0.0
 43
0.0
 43
0.0208333333333333
 43
0.0
 43
0.0
 43
0.0
 43
0.0
 43
1.0
 43
0.0
 43
0.0
 43
0.0
 43
0.0
 43
1.0
 77
     0
 47
0.0208333333333333
 47
0.0
 47
0.0
 47
0.0
 47
0.0
 47
0.0208333333333333
 47
0.0
 47
0.0
 47
0.0
 47
0.0
 47
1.0
 47
0.0
 47
0.0
 47
0.0
 47
0.0
 47
1.0
171
     0
 49
0.0208333333333333
 49
0.0
 49
0.0
 49
0.0
 49
0.0
 49
0.0208333333333333
 49
0.0
 49
0.0
 49
0.0
 49
0.0
 49
1.0
 49
0.0
 49
0.0
 49
0.0
 49
0.0
 49
1.0
175
     0
142
0.0208333333333333
142
0.0
142
0.0
142
0.0
142
0.0
142
0.0208333333333333
142
0.0
142
0.0
142
0.0
142
0.0
142
1.0
142
0.0
142
0.0
142
0.0
142
0.0
142
1.0
179
     0
144
0.0208333333333333
144
0.0
144
0.0
144
0.0
144
0.0
144
0.0208333333333333
144
0.0
144
0.0
144
0.0
144
0.0
144
1.0
144
0.0
144
0.0
144
0.0
144
0.0
144
1.0
147
0.0208333333333333
147
0.0
147
0.0
147
0.0
147
0.0
147
0.0208333333333333
147
0.0
147
0.0
147
0.0
147
0.0
147
1.0
147
0.0
147
0.0
147
0.0
147
0.0
147
1.0
  0
MATERIAL
  5
3E3
102
{ACAD_XDICTIONARY
360
3E4
102
}
102
{ACAD_REACTORS
330
10
102
}
330
10
100
AcDbMaterial
  1
RevitMaterialDefinition5277
 70
     1
 90
-1027753031
 71
     1
 91
-1027753031
  3
C:\Users\Andrew\AppData\Local\Temp
 73
     1
 76
     1
 45
0.5
 77
     0
175
     0
145
0.0
  0
MATERIAL
  5
3E0
102
{ACAD_XDICTIONARY
360
3E1
102
}
102
{ACAD_REACTORS
330
10
102
}
330
10
100
AcDbMaterial
  1
RevitMaterialDefinition5282
 70
     1
 90
-1039068911
 71
     1
 91
-1039068911
  3
C:\Users\Andrew\AppData\Local\Temp
 73
     1
 76
     1
 45
0.5
 77
     0
175
     0
145
0.0
  0
MLEADERSTYLE
  5
6F
102
{ACAD_REACTORS
330
6E
102
}
330
6E
100
AcDbMLeaderStyle
170
     2
171
     1
172
     0
 90
        2
 40
0.0
 41
0.0
173
     1
 91
-1056964608
340
63
 92
       -2
290
     1
 42
0.09
291
     1
 43
0.36
  3
Standard
 44
0.18
300

342
5D
174
     1
178
     6
175
     1
176
     0
 93
-1056964608
 45
0.18
292
     0
297
     0
 46
0.18
 94
-1056964608
 47
1.0
 49
1.0
140
1.0
293
     1
141
0.0
294
     1
177
     0
142
1.0
295
     1
296
     0
143
0.125
1001
ACAD_MLEADERVER
1070
     2
  0
MLINESTYLE
  5
68
102
{ACAD_REACTORS
330
67
102
}
330
67
100
AcDbMlineStyle
  2
STANDARD
 70
     0
  3

 62
   256
 51
90.0
 52
90.0
 71
     2
 49
0.5
 62
   256
  6
BYLAYER
 49
-0.5
 62
   256
  6
BYLAYER
  0
ACDBPLACEHOLDER
  5
F
102
{ACAD_REACTORS
330
E
102
}
330
E
  0
SCALE
  5
3B
102
{ACAD_REACTORS
330
3A
102
}
330
3A
100
AcDbScale
 70
     0
300
1:1
140
1.0
141
1.0
290
     1
  0
SCALE
  5
3C
102
{ACAD_REACTORS
330
3A
102
}
330
3A
100
AcDbScale
 70
     0
300
1:2
140
1.0
141
2.0
290
     0
  0
SCALE
  5
3D
102
{ACAD_REACTORS
330
3A
102
}
330
3A
100
AcDbScale
 70
     0
300
1:4
140
1.0
141
4.0
290
     0
  0
SCALE
  5
3E
102
{ACAD_REACTORS
330
3A
102
}
330
3A
100
AcDbScale
 70
     0
300
1:5
140
1.0
141
5.0
290
     0
  0
SCALE
  5
3F
102
{ACAD_REACTORS
330
3A
102
}
330
3A
100
AcDbScale
 70
     0
300
1:8
140
1.0
141
8.0
290
     0
  0
SCALE
  5
40
102
{ACAD_REACTORS
330
3A
102
}
330
3A
100
AcDbScale
 70
     0
300
1:10
140
1.0
141
10.0
290
     0
  0
SCALE
  5
41
102
{ACAD_REACTORS
330
3A
102
}
330
3A
100
AcDbScale
 70
     0
300
1:16
140
1.0
141
16.0
290
     0
  0
SCALE
  5
42
102
{ACAD_REACTORS
330
3A
102
}
330
3A
100
AcDbScale
 70
     0
300
1:20
140
1.0
141
20.0
290
     0
  0
SCALE
  5
43
102
{ACAD_REACTORS
330
3A
102
}
330
3A
100
AcDbScale
 70
     0
300
1:30
140
1.0
141
30.0
290
     0
  0
SCALE
  5
44
102
{ACAD_REACTORS
330
3A
102
}
330
3A
100
AcDbScale
 70
     0
300
1:40
140
1.0
141
40.0
290
     0
  0
SCALE
  5
45
102
{ACAD_REACTORS
330
3A
102
}
330
3A
100
AcDbScale
 70
     0
300
1:50
140
1.0
141
50.0
290
     0
  0
SCALE
  5
46
102
{ACAD_REACTORS
330
3A
102
}
330
3A
100
AcDbScale
 70
     0
300
1:100
140
1.0
141
100.0
290
     0
  0
SCALE
  5
47
102
{ACAD_REACTORS
330
3A
102
}
330
3A
100
AcDbScale
 70
     0
300
2:1
140
2.0
141
1.0
290
     0
  0
SCALE
  5
48
102
{ACAD_REACTORS
330
3A
102
}
330
3A
100
AcDbScale
 70
     0
300
4:1
140
4.0
141
1.0
290
     0
  0
SCALE
  5
49
102
{ACAD_REACTORS
330
3A
102
}
330
3A
100
AcDbScale
 70
     0
300
8:1
140
8.0
141
1.0
290
     0
  0
SCALE
  5
4A
102
{ACAD_REACTORS
330
3A
102
}
330
3A
100
AcDbScale
 70
     0
300
10:1
140
10.0
141
1.0
290
     0
  0
SCALE
  5
4B
102
{ACAD_REACTORS
330
3A
102
}
330
3A
100
AcDbScale
 70
     0
300
100:1
140
100.0
141
1.0
290
     0
  0
SCALE
  5
4C
102
{ACAD_REACTORS
330
3A
102
}
330
3A
100
AcDbScale
 70
     0
300
1/128" = 1'-0"
140
0.0078125
141
12.0
290
     0
  0
SCALE
  5
4D
102
{ACAD_REACTORS
330
3A
102
}
330
3A
100
AcDbScale
 70
     0
300
1/64" = 1'-0"
140
0.015625
141
12.0
290
     0
  0
SCALE
  5
4E
102
{ACAD_REACTORS
330
3A
102
}
330
3A
100
AcDbScale
 70
     0
300
1/32" = 1'-0"
140
0.03125
141
12.0
290
     0
  0
SCALE
  5
4F
102
{ACAD_REACTORS
330
3A
102
}
330
3A
100
AcDbScale
 70
     0
300
1/16" = 1'-0"
140
0.0625
141
12.0
290
     0
  0
SCALE
  5
50
102
{ACAD_REACTORS
330
3A
102
}
330
3A
100
AcDbScale
 70
     0
300
3/32" = 1'-0"
140
0.09375
141
12.0
290
     0
  0
SCALE
  5
51
102
{ACAD_REACTORS
330
3A
102
}
330
3A
100
AcDbScale
 70
     0
300
1/8" = 1'-0"
140
0.125
141
12.0
290
     0
  0
SCALE
  5
52
102
{ACAD_REACTORS
330
3A
102
}
330
3A
100
AcDbScale
 70
     0
300
3/16" = 1'-0"
140
0.1875
141
12.0
290
     0
  0
SCALE
  5
53
102
{ACAD_REACTORS
330
3A
102
}
330
3A
100
AcDbScale
 70
     0
300
1/4" = 1'-0"
140
0.25
141
12.0
290
     0
  0
SCALE
  5
54
102
{ACAD_REACTORS
330
3A
102
}
330
3A
100
AcDbScale
 70
     0
300
3/8" = 1'-0"
140
0.375
141
12.0
290
     0
  0
SCALE
  5
55
102
{ACAD_REACTORS
330
3A
102
}
330
3A
100
AcDbScale
 70
     0
300
1/2" = 1'-0"
140
0.5
141
12.0
290
     0
  0
SCALE
  5
56
102
{ACAD_REACTORS
330
3A
102
}
330
3A
100
AcDbScale
 70
     0
300
3/4" = 1'-0"
140
0.75
141
12.0
290
     0
  0
SCALE
  5
57
102
{ACAD_REACTORS
330
3A
102
}
330
3A
100
AcDbScale
 70
     0
300
1" = 1'-0"
140
1.0
141
12.0
290
     0
  0
SCALE
  5
58
102
{ACAD_REACTORS
330
3A
102
}
330
3A
100
AcDbScale
 70
     0
300
1-1/2" = 1'-0"
140
1.5
141
12.0
290
     0
  0
SCALE
  5
59
102
{ACAD_REACTORS
330
3A
102
}
330
3A
100
AcDbScale
 70
     0
300
3" = 1'-0"
140
3.0
141
12.0
290
     0
  0
SCALE
  5
5A
102
{ACAD_REACTORS
330
3A
102
}
330
3A
100
AcDbScale
 70
     0
300
6" = 1'-0"
140
6.0
141
12.0
290
     0
  0
SCALE
  5
5B
102
{ACAD_REACTORS
330
3A
102
}
330
3A
100
AcDbScale
 70
     0
300
1'-0" = 1'-0"
140
12.0
141
12.0
290
     0
  0
TABLESTYLE
  5
6D
102
{ACAD_XDICTIONARY
360
3ED
102
}
102
{ACAD_REACTORS
330
6C
102
}
330
6C
100
AcDbTableStyle
  3
Standard
 70
     0
 71
     0
 40
0.06
 41
0.06
280
     0
281
     0
  7
Standard
140
0.18
170
     2
 62
     0
 63
     7
283
     0
 90
      512
 91
        0
  1

274
    -2
284
     1
 64
     0
275
    -2
285
     1
 65
     0
276
    -2
286
     1
 66
     0
277
    -2
287
     1
 67
     0
278
    -2
288
     1
 68
     0
279
    -2
289
     1
 69
     0
  7
Standard
140
0.25
170
     5
 62
     0
 63
     7
283
     0
 90
      512
 91
        0
  1

274
    -2
284
     1
 64
     0
275
    -2
285
     1
 65
     0
276
    -2
286
     1
 66
     0
277
    -2
287
     1
 67
     0
278
    -2
288
     1
 68
     0
279
    -2
289
     1
 69
     0
  7
Standard
140
0.18
170
     5
 62
     0
 63
     7
283
     0
 90
      512
 91
        0
  1

274
    -2
284
     1
 64
     0
275
    -2
285
     1
 65
     0
276
    -2
286
     1
 66
     0
277
    -2
287
     1
 67
     0
278
    -2
288
     1
 68
     0
279
    -2
289
     1
 69
     0
  0
VISUALSTYLE
  5
2F
102
{ACAD_REACTORS
330
29
102
}
330
29
100
AcDbVisualStyle
  2
2dWireframe
 70
     4
 71
     0
 72
     2
 73
     0
 90
        0
 40
-0.6
 41
-30.0
 62
     5
 63
     7
421
 16777215
 74
     1
 91
        4
 64
     7
 65
   257
 75
     1
175
     1
 42
1.0
 92
        0
 66
   257
 43
1.0
 76
     1
 77
     6
 78
     2
 67
     7
 79
     5
170
     0
171
     0
290
     0
174
     0
 93
        1
 44
0.0
173
     0
291
     0
 45
0.0
  0
VISUALSTYLE
  5
31
102
{ACAD_REACTORS
330
29
102
}
330
29
100
AcDbVisualStyle
  2
3D Hidden
 70
     6
 71
     1
 72
     2
 73
     2
 90
        0
 40
-0.6
 41
-30.0
 62
     5
 63
     7
421
 16777215
 74
     2
 91
        2
 64
     7
 65
   257
 75
     2
175
     1
 42
40.0
 92
        0
 66
   257
 43
1.0
 76
     1
 77
     6
 78
     2
 67
     7
 79
     3
170
     0
171
     0
290
     0
174
     0
 93
        1
 44
0.0
173
     0
291
     0
 45
0.0
  0
VISUALSTYLE
  5
30
102
{ACAD_REACTORS
330
29
102
}
330
29
100
AcDbVisualStyle
  2
3dWireframe
 70
     5
 71
     0
 72
     2
 73
     0
 90
        0
 40
-0.6
 41
-30.0
 62
     5
 63
     7
421
 16777215
 74
     1
 91
        4
 64
     7
 65
   257
 75
     1
175
     1
 42
1.0
 92
        0
 66
   257
 43
1.0
 76
     1
 77
     6
 78
     2
 67
     7
 79
     5
170
     0
171
     0
290
     0
174
     0
 93
        1
 44
0.0
173
     0
291
     0
 45
0.0
  0
VISUALSTYLE
  5
2E
102
{ACAD_REACTORS
330
29
102
}
330
29
100
AcDbVisualStyle
  2
Basic
 70
     7
 71
     1
 72
     0
 73
     1
 90
        0
 40
-0.6
 41
-30.0
 62
     5
 63
     7
421
 16777215
 74
     0
 91
        4
 64
     7
 65
   257
 75
     1
175
     1
 42
1.0
 92
        8
 66
     7
 43
1.0
 76
     1
 77
     6
 78
     2
 67
     7
 79
     5
170
     0
171
     0
290
     0
174
     0
 93
        1
 44
0.0
173
     0
291
     1
 45
0.0
  0
VISUALSTYLE
  5
35
102
{ACAD_REACTORS
330
29
102
}
330
29
100
AcDbVisualStyle
  2
Brighten
 70
    12
 71
     2
 72
     2
 73
     0
 90
        0
 40
-0.6
 41
-30.0
 62
     5
 63
     7
421
 16777215
 74
     1
 91
        4
 64
     7
 65
   257
 75
     1
175
     1
 42
1.0
 92
        8
 66
     7
 43
1.0
 76
     1
 77
     6
 78
     2
 67
     7
 79
     5
170
     0
171
     0
290
     0
174
     0
 93
        1
 44
50.0
173
     0
291
     1
 45
0.0
  0
VISUALSTYLE
  5
39
102
{ACAD_REACTORS
330
29
102
}
330
29
100
AcDbVisualStyle
  2
ColorChange
 70
    16
 71
     2
 72
     2
 73
     3
 90
        0
 40
-0.6
 41
-30.0
 62
     5
 63
     8
421
  8421504
 74
     1
 91
        4
 64
     7
 65
   257
 75
     1
175
     1
 42
1.0
 92
        8
 66
     8
424
  8421504
 43
1.0
 76
     1
 77
     6
 78
     2
 67
     7
 79
     5
170
     0
171
     0
290
     0
174
     0
 93
        1
 44
0.0
173
     0
291
     1
 45
0.0
  0
VISUALSTYLE
  5
32
102
{ACAD_REACTORS
330
29
102
}
330
29
100
AcDbVisualStyle
  2
Conceptual
 70
     9
 71
     3
 72
     2
 73
     0
 90
        0
 40
-0.6
 41
-30.0
 62
     5
 63
     7
421
 16777215
 74
     2
 91
        2
 64
     7
 65
   257
 75
     1
175
     1
 42
40.0
 92
        8
 66
     7
 43
1.0
 76
     1
 77
     6
 78
     2
 67
     7
 79
     3
170
     0
171
     0
290
     0
174
     0
 93
        1
 44
0.0
173
     0
291
     0
 45
0.0
  0
VISUALSTYLE
  5
34
102
{ACAD_REACTORS
330
29
102
}
330
29
100
AcDbVisualStyle
  2
Dim
 70
    11
 71
     2
 72
     2
 73
     0
 90
        0
 40
-0.6
 41
-30.0
 62
     5
 63
     7
421
 16777215
 74
     1
 91
        4
 64
     7
 65
   257
 75
     1
175
     1
 42
1.0
 92
        8
 66
     7
 43
1.0
 76
     1
 77
     6
 78
     2
 67
     7
 79
     5
170
     0
171
     0
290
     0
174
     0
 93
        1
 44
-50.0
173
     0
291
     1
 45
0.0
  0
VISUALSTYLE
  5
38
102
{ACAD_REACTORS
330
29
102
}
330
29
100
AcDbVisualStyle
  2
Facepattern
 70
    15
 71
     2
 72
     2
 73
     0
 90
        0
 40
-0.6
 41
-30.0
 62
     5
 63
     7
421
 16777215
 74
     1
 91
        4
 64
     7
 65
   257
 75
     1
175
     1
 42
1.0
 92
        8
 66
     7
 43
1.0
 76
     1
 77
     6
 78
     2
 67
     7
 79
     5
170
     0
171
     0
290
     0
174
     0
 93
        1
 44
0.0
173
     0
291
     1
 45
0.0
  0
VISUALSTYLE
  5
2A
102
{ACAD_REACTORS
330
29
102
}
330
29
100
AcDbVisualStyle
  2
Flat
 70
     0
 71
     2
 72
     1
 73
     1
 90
        2
 40
-0.6
 41
30.0
 62
     5
 63
     7
421
 16777215
 74
     0
 91
        4
 64
     7
 65
   257
 75
     1
175
     1
 42
1.0
 92
        8
 66
     7
 43
1.0
 76
     1
 77
     6
 78
     2
 67
     7
 79
     5
170
     0
171
     0
290
     0
174
     0
 93
       13
 44
0.0
173
     0
291
     1
 45
0.0
  0
VISUALSTYLE
  5
2B
102
{ACAD_REACTORS
330
29
102
}
330
29
100
AcDbVisualStyle
  2
FlatWithEdges
 70
     1
 71
     2
 72
     1
 73
     1
 90
        2
 40
-0.6
 41
30.0
 62
     5
 63
     7
421
 16777215
 74
     1
 91
        4
 64
     7
 65
   257
 75
     1
175
     1
 42
1.0
 92
        0
 66
   257
 43
1.0
 76
     1
 77
     6
 78
     2
 67
     7
 79
     5
170
     0
171
     0
290
     0
174
     0
 93
       13
 44
0.0
173
     0
291
     1
 45
0.0
  0
VISUALSTYLE
  5
2C
102
{ACAD_REACTORS
330
29
102
}
330
29
100
AcDbVisualStyle
  2
Gouraud
 70
     2
 71
     2
 72
     2
 73
     1
 90
        2
 40
-0.6
 41
30.0
 62
     5
 63
     7
421
 16777215
 74
     0
 91
        4
 64
     7
 65
   257
 75
     1
175
     1
 42
1.0
 92
        0
 66
     7
 43
1.0
 76
     1
 77
     6
 78
     2
 67
     7
 79
     5
170
     0
171
     0
290
     0
174
     0
 93
       13
 44
0.0
173
     0
291
     1
 45
0.0
  0
VISUALSTYLE
  5
2D
102
{ACAD_REACTORS
330
29
102
}
330
29
100
AcDbVisualStyle
  2
GouraudWithEdges
 70
     3
 71
     2
 72
     2
 73
     1
 90
        2
 40
-0.6
 41
30.0
 62
     5
 63
     7
421
 16777215
 74
     1
 91
        4
 64
     7
 65
   257
 75
     1
175
     1
 42
1.0
 92
        0
 66
   257
 43
1.0
 76
     1
 77
     6
 78
     2
 67
     7
 79
     5
170
     0
171
     0
290
     0
174
     0
 93
       13
 44
0.0
173
     0
291
     1
 45
0.0
  0
VISUALSTYLE
  5
37
102
{ACAD_REACTORS
330
29
102
}
330
29
100
AcDbVisualStyle
  2
Linepattern
 70
    14
 71
     2
 72
     2
 73
     0
 90
        0
 40
-0.6
 41
-30.0
 62
     5
 63
     7
421
 16777215
 74
     1
 91
        4
 64
     7
 65
   257
 75
     7
175
     7
 42
1.0
 92
        8
 66
     7
 43
1.0
 76
     1
 77
     6
 78
     2
 67
     7
 79
     5
170
     0
171
     0
290
     0
174
     0
 93
        1
 44
0.0
173
     0
291
     1
 45
0.0
  0
VISUALSTYLE
  5
33
102
{ACAD_REACTORS
330
29
102
}
330
29
100
AcDbVisualStyle
  2
Realistic
 70
     8
 71
     2
 72
     2
 73
     0
 90
        0
 40
-0.6
 41
-30.0
 62
     5
 63
     7
421
 16777215
 74
     1
 91
        0
 64
     7
 65
   257
 75
     1
175
     1
 42
1.0
 92
        8
 66
     8
424
  7895160
 43
1.0
 76
     1
 77
     6
 78
     2
 67
     7
 79
     5
170
     0
171
     0
290
     0
174
     0
 93
       13
 44
0.0
173
     0
291
     0
 45
0.0
  0
VISUALSTYLE
  5
36
102
{ACAD_REACTORS
330
29
102
}
330
29
100
AcDbVisualStyle
  2
Thicken
 70
    13
 71
     2
 72
     2
 73
     0
 90
        0
 40
-0.6
 41
-30.0
 62
     5
 63
     7
421
 16777215
 74
     1
 91
        4
 64
     7
 65
   257
 75
     1
175
     1
 42
1.0
 92
       12
 66
     7
 43
1.0
 76
     1
 77
     6
 78
     2
 67
     7
 79
     5
170
     0
171
     0
290
     0
174
     0
 93
        1
 44
0.0
173
     0
291
     1
 45
0.0
  0
DICTIONARYVAR
  5
3EC
102
{ACAD_REACTORS
330
3E9
102
}
330
3E9
100
DictionaryVariables
280
     0
  1
1:1
  0
DICTIONARYVAR
  5
3EB
102
{ACAD_REACTORS
330
3E9
102
}
330
3E9
100
DictionaryVariables
280
     0
  1
STANDARD
  0
DICTIONARYVAR
  5
3EA
102
{ACAD_REACTORS
330
3E9
102
}
330
3E9
100
DictionaryVariables
280
     0
  1
STANDARD
  0
XRECORD
  5
3E7
102
{ACAD_REACTORS
330
3E6
102
}
330
3E6
100
AcDbXrecord
280
     1
  1
-2000151
  1
Generic Models
  1
-2007000
  1
Connector Element
  0
XRECORD
  5
3E8
102
{ACAD_REACTORS
330
3E6
102
}
330
3E6
100
AcDbXrecord
280
     1
  1
-2007002
  1
Y Axis
  0
DICTIONARY
  5
1A
330
19
100
AcDbDictionary
280
     1
281
     1
  3
BUMPTILE
360
1C
  3
DIFFUSETILE
360
1B
  3
OPACITYTILE
360
1F
  3
REFLECTIONTILE
360
1E
  3
REFRACTIONTILE
360
20
  3
SPECULARTILE
360
1D
  0
DICTIONARY
  5
12
330
11
100
AcDbDictionary
280
     1
281
     1
  3
BUMPTILE
360
14
  3
DIFFUSETILE
360
13
  3
OPACITYTILE
360
17
  3
REFLECTIONTILE
360
16
  3
REFRACTIONTILE
360
18
  3
SPECULARTILE
360
15
  0
DICTIONARY
  5
22
330
21
100
AcDbDictionary
280
     1
281
     1
  3
BUMPTILE
360
24
  3
DIFFUSETILE
360
23
  3
OPACITYTILE
360
27
  3
REFLECTIONTILE
360
26
  3
REFRACTIONTILE
360
28
  3
SPECULARTILE
360
25
  0
DICTIONARY
  5
3E4
330
3E3
100
AcDbDictionary
280
     1
281
     1
  3
VIZ XML Material Definition
360
3E5
  0
DICTIONARY
  5
3E1
330
3E0
100
AcDbDictionary
280
     1
281
     1
  3
VIZ XML Material Definition
360
3E2
  0
DICTIONARY
  5
3ED
330
6D
100
AcDbDictionary
280
     1
281
     1
  3
ACAD_ROUNDTRIP_2008_TABLESTYLE_CELLSTYLEMAP
360
3EE
  0
XRECORD
  5
1C
102
{ACAD_REACTORS
330
1A
102
}
330
1A
100
AcDbXrecord
280
     1
270
     1
271
     1
  0
XRECORD
  5
1B
102
{ACAD_REACTORS
330
1A
102
}
330
1A
100
AcDbXrecord
280
     1
270
     1
271
     1
  0
XRECORD
  5
1F
102
{ACAD_REACTORS
330
1A
102
}
330
1A
100
AcDbXrecord
280
     1
270
     1
271
     1
  0
XRECORD
  5
1E
102
{ACAD_REACTORS
330
1A
102
}
330
1A
100
AcDbXrecord
280
     1
270
     1
271
     1
  0
XRECORD
  5
20
102
{ACAD_REACTORS
330
1A
102
}
330
1A
100
AcDbXrecord
280
     1
270
     1
271
     1
  0
XRECORD
  5
1D
102
{ACAD_REACTORS
330
1A
102
}
330
1A
100
AcDbXrecord
280
     1
270
     1
271
     1
  0
XRECORD
  5
14
102
{ACAD_REACTORS
330
12
102
}
330
12
100
AcDbXrecord
280
     1
270
     1
271
     1
  0
XRECORD
  5
13
102
{ACAD_REACTORS
330
12
102
}
330
12
100
AcDbXrecord
280
     1
270
     1
271
     1
  0
XRECORD
  5
17
102
{ACAD_REACTORS
330
12
102
}
330
12
100
AcDbXrecord
280
     1
270
     1
271
     1
  0
XRECORD
  5
16
102
{ACAD_REACTORS
330
12
102
}
330
12
100
AcDbXrecord
280
     1
270
     1
271
     1
  0
XRECORD
  5
18
102
{ACAD_REACTORS
330
12
102
}
330
12
100
AcDbXrecord
280
     1
270
     1
271
     1
  0
XRECORD
  5
15
102
{ACAD_REACTORS
330
12
102
}
330
12
100
AcDbXrecord
280
     1
270
     1
271
     1
  0
XRECORD
  5
24
102
{ACAD_REACTORS
330
22
102
}
330
22
100
AcDbXrecord
280
     1
270
     1
271
     1
  0
XRECORD
  5
23
102
{ACAD_REACTORS
330
22
102
}
330
22
100
AcDbXrecord
280
     1
270
     1
271
     1
  0
XRECORD
  5
27
102
{ACAD_REACTORS
330
22
102
}
330
22
100
AcDbXrecord
280
     1
270
     1
271
     1
  0
XRECORD
  5
26
102
{ACAD_REACTORS
330
22
102
}
330
22
100
AcDbXrecord
280
     1
270
     1
271
     1
  0
XRECORD
  5
28
102
{ACAD_REACTORS
330
22
102
}
330
22
100
AcDbXrecord
280
     1
270
     1
271
     1
  0
XRECORD
  5
25
102
{ACAD_REACTORS
330
22
102
}
330
22
100
AcDbXrecord
280
     1
270
     1
271
     1
  0
XRECORD
  5
3E5
102
{ACAD_REACTORS
330
3E4
102
}
330
3E4
100
AcDbXrecord
280
     1
300
<Material id="RevitMaterialDefinition5277" app="REVIT" Background="0" Backlight="1" Sample="0" Tiling="0">^J<LinearUnits unitType="foot" unitScale="1.0"/>^J<ArchitecturalMaterial name="ASI - ABS - Satin Stainless Steel">^J<ArchTemplateParameters name="ASI - 
300
ABS - Satin Stainless Steel" classid_A="2008828122" classid_B="14503598">^J</ArchTemplateParameters>^J<ArchMatParameters>^J<ArchDiffuseColor>^J<RGBf r="0.7412" g="0.7333" b="0.7255"/>^J</ArchDiffuseColor>^J<ArchIndexOfRefraction>1.5000</ArchIndexOfRefraction>^J<
300
ArchTransparency>0.0000</ArchTransparency>^J<ArchLuminance>0.0000</ArchLuminance>^J</ArchMatParameters>^J<MapSet>^J<MapLib>^J<TextureMap name="ASI - ABS - Satin Stainless Steel texture" id="RevitTextureDefinition5277">^J<BitmapMap>^J<TexMapCoords2d>^J<TextureCoor
300
ds>^J<ExplicitMapChannel CoordPlane="uv">^J<MapChannel>1</MapChannel>^J<UCoords>^J<OffsetCoord>0.0000</OffsetCoord>^J<TilingCoord>0.0000</TilingCoord>^J<TextureTiling Tiling="tile"/>^J</UCoords>^J<VCoords>^J<OffsetCoord>0.0000</OffsetCoord>^J<TilingCoord>0.0000</Ti
300
lingCoord>^J<TextureTiling Tiling="tile"/>^J</VCoords>^J</ExplicitMapChannel>^J</TextureCoords>^J</TexMapCoords2d>^J<BitmapParameters>^J<BitmapFile filename="C:\Users\Andrew\AppData\Local\Temp"/>^J<Cropping on="0" CropType="crop">^J<UCrop>0.0</UCrop>^J<VCrop>0.0</V
300
Crop>^J<WCrop>1.0</WCrop>^J<HCrop>1.0</HCrop>^J</Cropping>^J</BitmapParameters>^J</BitmapMap>^J</TextureMap>^J</MapLib>^J<Map on="1" TexMapChannelNum="1" TexMapChannel="Diffuse Map" Amount="100" TexMapRef="RevitTextureDefinition5277"/>^J</MapSet>^J</ArchitecturalMa
300
terial>^J</Material>^J
  0
XRECORD
  5
3E2
102
{ACAD_REACTORS
330
3E1
102
}
330
3E1
100
AcDbXrecord
280
     1
300
<Material id="RevitMaterialDefinition5282" app="REVIT" Background="0" Backlight="1" Sample="0" Tiling="0">^J<LinearUnits unitType="foot" unitScale="1.0"/>^J<ArchitecturalMaterial name="ASI - ABS - Black">^J<ArchTemplateParameters name="ASI - ABS - Black" cla
300
ssid_A="2008828122" classid_B="14503598">^J</ArchTemplateParameters>^J<ArchMatParameters>^J<ArchDiffuseColor>^J<RGBf r="0.0667" g="0.0667" b="0.0667"/>^J</ArchDiffuseColor>^J<ArchIndexOfRefraction>1.5000</ArchIndexOfRefraction>^J<ArchTransparency>0.0000</ArchTra
300
nsparency>^J<ArchLuminance>0.0000</ArchLuminance>^J</ArchMatParameters>^J<MapSet>^J<MapLib>^J<TextureMap name="ASI - ABS - Black texture" id="RevitTextureDefinition5282">^J<BitmapMap>^J<TexMapCoords2d>^J<TextureCoords>^J<ExplicitMapChannel CoordPlane="uv">^J<MapCha
300
nnel>1</MapChannel>^J<UCoords>^J<OffsetCoord>0.0000</OffsetCoord>^J<TilingCoord>0.0000</TilingCoord>^J<TextureTiling Tiling="tile"/>^J</UCoords>^J<VCoords>^J<OffsetCoord>0.0000</OffsetCoord>^J<TilingCoord>0.0000</TilingCoord>^J<TextureTiling Tiling="tile"/>^J</VCoo
300
rds>^J</ExplicitMapChannel>^J</TextureCoords>^J</TexMapCoords2d>^J<BitmapParameters>^J<BitmapFile filename="C:\Users\Andrew\AppData\Local\Temp"/>^J<Cropping on="0" CropType="crop">^J<UCrop>0.0</UCrop>^J<VCrop>0.0</VCrop>^J<WCrop>1.0</WCrop>^J<HCrop>1.0</HCrop>^J</Cr
300
opping>^J</BitmapParameters>^J</BitmapMap>^J</TextureMap>^J</MapLib>^J<Map on="1" TexMapChannelNum="1" TexMapChannel="Diffuse Map" Amount="100" TexMapRef="RevitTextureDefinition5282"/>^J</MapSet>^J</ArchitecturalMaterial>^J</Material>^J
  0
CELLSTYLEMAP
  5
3EE
102
{ACAD_REACTORS
330
3ED
102
}
330
3ED
100
AcDbCellStyleMap
 90
        3
300
CELLSTYLE
  1
TABLEFORMAT_BEGIN
 90
        5
170
     1
 91
        0
 92
    32768
 62
   257
 93
        1
300
CONTENTFORMAT
  1
CONTENTFORMAT_BEGIN
 90
        0
 91
        0
 92
      512
 93
        0
300

 40
0.0
140
1.0
 94
        5
 62
     0
340
5D
144
0.25
309
CONTENTFORMAT_END
171
     0
 94
        0
309
TABLEFORMAT_END
  1
CELLSTYLE_BEGIN
 90
        1
 91
        1
300
_TITLE
309
CELLSTYLE_END
300
CELLSTYLE
  1
TABLEFORMAT_BEGIN
 90
        5
170
     1
 91
        0
 92
        0
 62
   257
 93
        1
300
CONTENTFORMAT
  1
CONTENTFORMAT_BEGIN
 90
        0
 91
        0
 92
      512
 93
        0
300

 40
0.0
140
1.0
 94
        5
 62
     0
340
5D
144
0.18
309
CONTENTFORMAT_END
171
     0
 94
        0
309
TABLEFORMAT_END
  1
CELLSTYLE_BEGIN
 90
        2
 91
        1
300
_HEADER
309
CELLSTYLE_END
300
CELLSTYLE
  1
TABLEFORMAT_BEGIN
 90
        5
170
     1
 91
        0
 92
        0
 62
   257
 93
        1
300
CONTENTFORMAT
  1
CONTENTFORMAT_BEGIN
 90
        0
 91
        0
 92
      512
 93
        0
300

 40
0.0
140
1.0
 94
        2
 62
     0
340
5D
144
0.18
309
CONTENTFORMAT_END
171
     0
 94
        0
309
TABLEFORMAT_END
  1
CELLSTYLE_BEGIN
 90
        3
 91
        2
300
_DATA
309
CELLSTYLE_END
  0
ENDSEC
  0
EOF
